» » »

Radiohead, Molasses Tabs (ver.2)

Artists:  A B C D E F G H I J K L M N O P Q R S T U V W X Y Z # 

Molasses Tabs (ver.2)

Radiohead Tabs
Rating:
0/5 (0 votes)
Hard to play? Try these video lessons and learn fast.
                Here's the song Molasses from Radiohead. No capo or alternative tuning.

Almost the whole song:
E|------------------------------------------------------------------|
B|------------------------------------------------------------------|
G|--------------------------3--------3--------1--------1------------|
D|--------3--------3-----2--------2--------0--------0---------------|
A|-----2--------2-----3--------3--------1--------1------------------|
E|--3--------3---------------------------------------------5----5---|

Shake hands
Genocide
Molasses
Jet-powered caravans
Molasses
I'm too good
You're stuck on
Rent free earthquake zone
Molasses

I need someone else's glasses.
Starving waitresses in plasters,
Fat houseflies
Genocide
We've been stitched up
Molasses


Bridge (repeat till end)
E|----3----3-3-----3---3-----3---3----5/6\5---3---1------|
B|---------------------------------------------------3---|
G|--0---0------0-0---0---0-0---0---0---------------------|
D|-------------------------------------------------------|
A|-------------------------------------------------------|
E|-------------------------------------------------------|
            

comments powered by Disqus
↑ Back to top | Radiohead Tabs for Molasses. Lyrics for acoustic guitar and electric guitar. Tablatures and chords are parodies/interpretations of the original songs. You may use it for private study, scholarship, research or language learning purposes only