» » »

Maquiladora Tabs (ver.2)

Artists:  A B C D E F G H I J K L M N O P Q R S T U V W X Y Z # 

Maquiladora Tabs (ver.2)

Radiohead
Rating:
0/5 (0 votes)

Hard to play? Try these video lessons and learn fast.
                (Intro)
hey hey

tunning: standard

intro(Ed & Thom):
E-0-----0-0---0-|-0-0---0-0---0-|
B-0-----0-0---0-|-0-0---0-0---0-|
G-1-----1-2---1-|-1-1---1-2---1-|
D-2-----0-2---0-|-2-2---0-2---0-|
A-2-------0-----|-2-2-----0-----|
E-0-------------|-0-0-----------|

E-0-----0-0---0-|-0-0---0-0---0-|
B-0-----0-0---0-|-0-0---0-0---0-|
G-1-----1-2---1-|-1-1---1-2---1-|
D-2-----0-2---0-|-2-2---0-2---0-|
A-2-------0-----|-2-2-----0-----|
E-0-------------|-0-0-----------|

intro(Johnny):
E------------------------------|
B-4--5--4--5---4-5-4~~~~~~~----|
G------------------------------|
D------------------------------|
A------------------------------|
E------------------------------|

E------------------------------|
B-4--5--4--5---4-5-------------|
G------------------------------|
D------------------------------|
A------------------------------|
E------------------------------|

please rate and comment!
            
Hard to play? Try these video lessons and learn fast. | Correct




comments powered by Disqus
↑ Back to top | Tablatures and chords are parodies/interpretations of the original songs. You may use it for private study, scholarship, research or language learning purposes only