>
 >
Let Down 2

Let Down 2 Bass Tabs

Radiohead - Let Down 2 chords, tabs, tablatures, lyrics

Guitar lessons | Add/correct | Request | Top 50 tabs Artists:  A B C D E F G H I J K L M N O P Q R S T U V W X Y Z 0-9

Let Down 2 Bass Tabs – Radiohead

CD, Sheet music, Poster

Do you like Let Down 2? Share with your friends now
Bass TabsBass Tabs v2ChordsTabsTabs v2Tabs v3Ukulele
-------------------------------------------------------------------------------
			                                LET DOWN - Radiohead
-------------------------------------------------------------------------------
Bassist: Colin Greenwood


Tuning: Standard (E A D G)

[Intro] (@ 0:13)
G|-----------|-------7----|-----------|-------------|
D|--7---7-7--|-7---7---11-|--7---7-7--|-7--7-7--7---|
A|-----------|------------|-----------|-----------7-|
E|-----------|------------|-----------|-------------|
[Verse One]
G|-----------|------------|-----------|-------------|
D|--7---7-7--|-7--7--7--7-|-----------|-------7-6---|
A|-----------|------------|--7---7-7--|-7---7-----7-|
E|-----------|------------|-----------|-------------|

G|----------|-------------|-----------|-------------|
D|----------|---------6-7-|-----------|------9-7-6--|
A|-9---9-9--|--9--9-------|--7---7-7--|-7--7-------7|
E|----------|-------------|-----------|-------------|

G|-----------|------------|-----------|-------------|
D|--7---7-7--|-7--7--7--76|-----------|-------7-6---|
A|-----------|------------|--7---7-7--|-7---7-----7-|
E|-----------|------------|-----------|-------------|

G|-----------|------------|-----------|-------------|
D|-----------|--------6-7-|---------9-|-7-6---------|
A|--9---9-9--|--9--9------|-7---7-7---|-----7-7-7---|
E|-----------|------------|-----------|-------------|
[Chorus]
G|-----------|------------|------------|------------|
D|-----------|------------|------------|------------|
A|-5-5-7-7-9-|-12-12-11-9-|-9-9-9-11-11|-5-5-7-7-9--|
E|-----------|------------|------------|------------|
                                                                                 
G|-----------|-------------|-----------|------------|---------|-----|
D|-----------|-------------|-----------|------------|9-9-7-6--|-7~--|
A|-12-12-11-9|-9-9-9-11-11-|-5-5-7-7-9-|-12-12-11-9-|-------7-|-----|
E|-----------|-------------|-----------|------------|--------7|-----|
[Hold for 3 bars]
[Verse Two]
G|-----------|------------|-----------|-------------|
D|--7---7-7--|-7--7--7--7-|-----------|-------7-6---|
A|-----------|------------|--7---7-7--|-7---7-----7-|
E|-----------|------------|-----------|-------------|

G|----------|-------------|----------|--------------|
D|----------|---------6-7-|--------9-|76------------|
A|-9---9-9--|--9--9-------|-7--9-7---|--7-5-5-4-5-7-|
E|----------|-------------|----------|--------------|
  
G|----------|-------------|-----------|-------------|
D|-7---7-7--|-7--7--7--6--|-----------|-------7-6---|
A|----------|-------------|--7---7-7--|-7--7------7-|
E|----------|-------------|-----------|-------------|

G|-----------|-------------|-----------|------------|
D|-----------|--------6-7--|-----------|-----7-6----|
A|--9---9-9--|--9--9-------|-7--7--7--7|-7--7----7--|
E|-----------|-------------|-----------|-----------7|
[Chorus]
G|-----------|------------|------------|------------|
D|-----------|------------|------------|------------|
A|-5-5-7-7-9-|-12-12-11-9-|-9-9-9-11-11|-5-5-7-7-9--|
E|-----------|------------|------------|------------|

G|-----------|-------------|-----------|------------|---------|-----|
D|-----------|-------------|-----------|------------|9-9-7-6--|-7~--|
A|-12-12-11-9|-9-9-9-11-11-|-5-5-7-7-9-|-12-12-11-9-|-------7-|-----|
E|-----------|-------------|-----------|------------|--------7|-----|
[Bridge]
G|-----------|
D|-7-7-7-7-7-| x 6 bars
A|-----------|
E|-----------|

G|11-11-11-9-9---------|
D|-------------11-11-11|
A|---------------------|
E|---------------------|

G|-----------|
D|-7-7-7-7-7-| x 9 bars
A|-----------|
E|-----------|

G|-----------|
D|-----------|
A|-5-5-7-7-9-|
E|-----------|

G|-----------|
D|-7-7-7-7-7-| x 3 bars
A|-----------|
E|-----------|

G|--------7-6-----|-----------|---7-6---7-6-|
D|-7-7-7-7----9-7-|-7-7-7-7-7-|7-7---7-7----|
A|----------------|-----------|-------------|
E|----------------|-----------|-------------|
[Verse Three]
G|----------|-------------|-----------|-------------|
D|-7---7-7--|-7--7--7--6--|-----------|-------7-6---|
A|----------|-------------|--7---7-7--|-7--7------7-|
E|----------|-------------|-----------|-------------|

G|-----------|------------|-----------|------------|
D|-----------|--------6-7-|-----------|-----7-6----|
A|--9---9-9--|--9--9------|--7---7-7--|-7--7----7--|
E|-----------|------------|-----------|-----------7|

G|----------|-------------|-----------|-------------|
D|-7---7-7--|-7--7--7--6--|-----------|-------7-6---|
A|----------|-------------|--7---7-7--|-7--7------7-|
E|----------|-------------|-----------|-------------|

G|-----------|------------|-----------|------------|
D|-----------|--------6-7-|-----------|-----7-6----|
A|--9---9-9--|--9--9------|--7---7-7--|-7--7----7--|
E|-----------|------------|-----------|-----------7|
[Chorus]
G|-----------|------------|------------|------------|
D|-----------|------------|------------|------------|
A|-5-5-7-7-9-|-12-12-11-9-|-9-9-9-11-11|-5-5-7-7-9--|
E|-----------|------------|------------|------------|

G|-----------|-------------|-----------|------------|---------|-----|
D|-----------|-------------|-----------|------------|9-9-7-6--|-7~--|
A|-12-12-11-9|-9-9-9-11-11-|-5-5-7-7-9-|-12-12-11-9-|-------7-|-----|
E|-----------|-------------|-----------|------------|--------7|-----|

Note: All the choruses are the same. The verses are as well, with some minor variations. 
I just typed them again for the sake of doing so. ;P

| /  slide up
| \  slide down
| h  hammer-on
| p  pull-off
| ~  vibrato
| +  harmonic
| x  Mute note
===============================================================================





Comments


Popular Radiohead tabs & chords
How To Disappear Completely 2 Bass Tabs
Just Bass Tabs
Lull 1 Bass Tabs
I Will Chords
Just Drum Tabs
2 2 Tabs
Fake Plastic Trees 2 Tabs
High And Dry 2 Tabs
In Limbo Tabs
How To Disappear Completely Ukulele


Song lyrics



↑ Back to top | Tablatures and chords are parodies/interpretations of the original songs. You may use it for private study, scholarship, research or language learning purposes only
© 2014 AZChords.com Contact us | Privacy policy | DMCA | Add/correct tabs | Request tabs | Top 50 tabs