» » »

Last Flowers Tabs (ver.1)

Artists:  A B C D E F G H I J K L M N O P Q R S T U V W X Y Z # 

Last Flowers Tabs (ver.1)

Radiohead
Rating:
0/5 (0 votes)

Hard to play? Try these video lessons and learn fast.
                Have fun playing this!
Intro
E--------------8-----------------8--------10---------0-1-0---------0-1-0------|
B---------9------9---------------9--------11-------1-1-1-1-------1-1-1-1------|
G--------10-------10-------------10--------12-------2------------2------------|
D----10---------------------10---------12--------2------------2---------------|
A--8---------------------8----------10---------0------------0-----------------|
E-----------------------------------------------------------------------------|

E--------------0---------0---------------0------------------------8----------|
B------1---3-1-------3-1----------1-3-1--1------1-3-1---------9-----9--------|
G------0-----------0--------------2-2-2---------2-2-2--------10------10------|
D----2-------------------------2--------------2-----------10-----------------|
A--3-------------3--------------------------------------8--------------------|
E---------------------------0---------------0--------------------------------|

E------------8-------|
B---------9----9-----|
G--------10-----10---|
D-----10-------------|
A---8----------------|
E--------------------|

Verse 1
E--------------8-----------------8--------10---------0-1-0---------0-1-0------|
B---------9------9---------------9--------11-------1-1-1-1-------1-1-1-1------|
G--------10-------10-------------10--------12-------2------------2------------|
D----10---------------------10---------12--------2------------2---------------|
A--8---------------------8----------10---------0------------0-----------------|
E-----------------------------------------------------------------------------|
			    Appliances have gone berserk…

E--------------0---------0---------------0------------------------8----------|
B------1---3-1-------3-1----------1-3-1--1------1-3-1---------9-----9--------|
G------0-----------0--------------2-2-2---------2-2-2--------10------10------|
D----2-------------------------2--------------2-----------10-----------------|
A--3-------------3--------------------------------------8--------------------|
E---------------------------0---------------0--------------------------------|

E------------8-------|
B---------9----9-----|
G--------10-----10---|
D-----10-------------|
A---8----------------|
E--------------------|
Snotnosed little punk…
Repeat till if you take me there you’ll get relief…

E-------1------1-----------------0----------0---------0--------0--------0--|
B-------3------3-----------1--3--1----------0---------0--------1--------0--|
G-------2------0-----------2--2-------------0---------2--------2--------0--|
D-----0------0----------2-------------------0------3--------0-----------2--|
A---0----------------0-------------------2------3--------3-----------2-----|
E----------2--------------------------3---------------------------0--------|
Relief…				    Relief…

E-------1------1-----------------0----------0---------0--------0--------0--|
B-------3------3-----------1--3--1----------0---------0--------1--------0--|
G-------2------0-----------2--2-------------0---------2--------2--------0--|
D-----0------0----------2-------------------0------3--------0-----------2--|
A---0----------------0-------------------2------3--------3-----------2-----|
E----------2--------------------------3---------------------------0--------|
Relief…				    Relief…

Verse 2 is the same as Verse 1.


Then, on too much too bright too powerfull just
   C  E  A
E -0--0----------|
B -1--0--2-3-----|
G -0--0--2-2-----|
D -2--2--2-2-----|
A -3--2--0-0-----|
E ---------------|
            
Hard to play? Try these video lessons and learn fast. | Correct




comments powered by Disqus
↑ Back to top | Tablatures and chords are parodies/interpretations of the original songs. You may use it for private study, scholarship, research or language learning purposes only