>
 >
Knives Out 2

Knives Out 2 Bass Tabs

Radiohead - Knives Out 2 chords, tabs, tablatures, lyrics

Guitar lessons | Add/correct | Request | Top 50 tabs Artists:  A B C D E F G H I J K L M N O P Q R S T U V W X Y Z 0-9

Knives Out 2 Bass Tabs – Radiohead

CD, Sheet music, Poster

Do you like Knives Out 2? Share with your friends now
Bass TabsBass Tabs v2ChordsChords v2TabsTabs v2Tabs v3Ukulele
---------------------------------
Knives Out - Radiohead (Amnesiac)
---------------------------------

Tuning: Standard (EADG)

Intro (0:00-0:19)
G|-----------------------------------------------------------------|
D|-----------------------------------------------------------------|
A|-3---3-3-31---1-1------------------6-----------------------------|
E|------------------04---4-4-04---4-4--4---4-0643---3-3531---1-1-1-|

G|-----------------------------------------|
D|-----------------------------------------|
A|-----------------------------------------|
E|-0---0-0-0h3p0-0-0-0h3p0-0-0-0h3p0-0-0h3-|

Verse I (0:19-0:58)
G|-----------------------------------------------------------------------|
D|-------------3---------------------------------------------------------|
A|-3---3-3-31----1-----------6-----------6-------------------------------|
E|------------------04---4--4---34---4--4---4---6---4-3---3-3531---1-1-1-|

G|-----------------------------------------|
D|-----------------------------------------|
A|-----------------------------------------|
E|-0---0-0-0h3p0-0-0-0h3p0-0-0-0h3p0-0-0h3-|

G|-----------------------------------------------------------------------|
D|---------------3-------------------------------------------------------|
A|-3---5---6-1-----1-----------6---------6-------------------------------|
E|--------------------04---4--4---34-4--4---4---6---4-3---3-3531---1-131-|

G|-----------------------------------------|
D|-----------------------------------------|
A|-----------------------------------------|
E|-0---0-0-0h3p0-0-0-0h3p0-0-0-0h3p0-0-0h3-|

Chorus I (0:58-1:22)
G|---------------------------------------------------------------------|
D|---------------------------------------------------------------------|
A|-----------------------------------5---5---5-53---3---3-53---3---3-3-|
E|-5---5---5--53---3---35-3---3---333----------------------------------|

G|--------------------------------------------------------------------------------|
D|--------------------------------------------------------------------------------|
A|-1---1---13-1---10--------------------------------------------------------------|
E|-------------------03---3---35-3---31-130---0-0-0h3p0-0-0-0h3p0-0-0-0h3p0-0-0h3-|

Verse II (1:22-2:00)
 (same as Verse I)

Chorus II (2:00-2:25)
G|------------------------------------------------------------------------------|
D|------------------------------------------------------------------------------|
A|------------------------------------5---5---5-53---3---3/15---15151515151515\-| < 15's
E|-5---5---5--53---3---3/15---15---15\------------------------------------------|

G|---------------------------------------------------------------------------------|
D|---------------------------------------------------------------------------------|
A|-1---1---13-1---1/12\------------------------------------------------------------|
E|---------------------3---3---35-3---3/13\0---0-0-0h3p0-0-0-0h3p0-0-0-0h3p0-0-0h3-|

Instrumental (2:25-3:03)
G|---------------------------------------------------------------------------|
D|---------------3---5-------------------------------------------------------|
A|-3---5---6-1-----------------6---------6-----------------------------------|
E|---------------------4---4--4--4---4--4---4---6---4-3---5---35-1---1---131-|

G|-----------------------------------------|
D|-----------------------------------------|
A|-----------------------------------------|
E|-0---0-0-0h3p0-0-0-0h3p0-0-0-0h3p0-0-0h3-|

G|------------------------------------------------------------------------|
D|---------------3---5----------------------------------------------------|
A|-3---5---6-1-----------------6---------6----------------------3---5---6-|
E|---------------------4---4--4--4---4--4---4---6---8-3---5---6-----------|

G|-----------------------------------------|
D|-----------------------------------------|
A|-----------------------------------------|
E|-0---0-0-0h3p0-0-0-0h3p0-0-0-0h3p0-0-0h3-|

Verse III (3:03-3:42)
G|-----------------------------------------------------------------------|
D|-------------3---------------------------------------------------------|
A|-3---3-3-31----1-----------6-----------6-------------------------------|
E|------------------04---4--4---34---4--4---4---6---4-3---3-3531---1-1-1-|

G|-----------------------------------------|
D|-----------------------------------------|
A|-----------------------------------------|
E|-0---0-0-0h3p0-0-0-0h3p0-0-0-0h3p0-0-0h3-|

G|------------------------------------------------------------------------|
D|---------------3--------------------------------------------------------|
A|-3---5---3-1-----1-----------6---------6----------------------3---5---6-|
E|--------------------04---4--4---34-4--4---4---6---4-3---5---6-----------|

G|-----------------------------------------|
D|-----------------------------------------|
A|-----------------------------------------|
E|-0---0-0-0h3p0-0-0-0h3p0-0-0-0h3p0-0-0h3-|

Chorus III (3:42-4:14)
G|--------------------------------------------------------------------|
D|--------------------------------------------------------------------|
A|---------------------------------5---5---5/15---15-15---15---15-15\-|
E|-5---5-5/15---15-15---15---15-15\-----------------------------------|

G|------------------------------------------------------------------------|
D|------------------------------------------------------------------------|
A|-1---1---13-1---1/12\---------------------------------------------------|
E|---------------------3---3---35-3---3/13\0---0-0-0h3p0-0-0-0h3p0-0-0-00-|





Comments


Popular Radiohead tabs & chords
A Punch-Up At The Wedding Bass Tabs
Just 6 Bass Tabs
Karma Police 2 Bass Tabs
Down Is The New Up Chords
Street Spirit Chords
Bones 1 Tabs
Go To Sleep 2 Tabs
Last Flowers Intro Tabs
Sulk Tabs
Planet Telex Ukulele


Song lyrics



↑ Back to top | Tablatures and chords are parodies/interpretations of the original songs. You may use it for private study, scholarship, research or language learning purposes only
© 2014 AZChords.com Contact us | Privacy policy | DMCA | Add/correct tabs | Request tabs | Top 50 tabs