» » »

Kid A Bass tabs (ver.1)

Artists:  A B C D E F G H I J K L M N O P Q R S T U V W X Y Z # 

Kid A Bass tabs (ver.1)

Radiohead
Rating:
0/5 (0 votes)

Hard to play? Try these video lessons and learn fast.
                (1)
Tuning: Standard (E A D G)

Someone requested the live version of Kid A, so here it is. It is alright, I rushed some of the parts, but I am pretty sure it goes along with, really good bass line which consists mostly of the note F. Colin is the man and the ending is improvised heavily, however that is the jist of it.

Enjoy corrections always welcomed.

Intro: (slide in only the first time)
G|-------------------------------------------------------------------||
D|-------------------------------------------------------------------||
A|-------------------------------------------------------------------||
E|/13-13-13-13-13-13-13-13-13-13-13-13-13-13-13-13-13-13-13-13-13-13-||

Break:
G|----------------------------||
D|15-15--15-15----------------||
A|----------------------------||
E|------------/8--8-/1-1--1-1-||

Verse: "We've Got Heads On Sticks"
G|-------------------------------------------------------------------||
D|-------------------------------------------------------------------||
A|-------------------------------------------------------------------||
E|/13-13-13-13-13-13-13-13-13-13-13-13-13-13-13-13-13-13-13-13-13-13-||

"Standing In The Shadows" and Break:
G|----------------------------------||
D|-15-15-15-------------------------||
A|----------------------------------||
E|---------/13-13-13-/1-1-1/13-13-13||

Ending:
G|-------------------------------------------------------
D|---------------------------------10-10-10-10-8-10-8-13-
A|---------------8-10-10-8-10-8-10-----------------------
E|-8-8-8-8-6-8-6-----------------------------------------

Cont...
---------------------------------||
15-15-15-15-13-15-13-15----------||
---------------------------------||
---------------------------------||
            
Hard to play? Try these video lessons and learn fast. | Correct




comments powered by Disqus
↑ Back to top | Tablatures and chords are parodies/interpretations of the original songs. You may use it for private study, scholarship, research or language learning purposes only