» » »

Radiohead, Just Bass tabs (ver.5)

Artists:  A B C D E F G H I J K L M N O P Q R S T U V W X Y Z # 

Just Bass tabs (ver.5)

Radiohead Tabs
 Rating:
4/5 (4 votes)
Just lessons Tabs too difficult? Try these video lessons and learn fast
                INTRO:	A|3-3-3-3|6-6-6-6|5-5-5-5|8-8-8-8| (x3)

VERSE 1: “Can’t Get The Stink Off…”
G|------|------|
D|------|------|
A|------|------|
E|5-5-55|4-4-44|

G|---------|
D|--5-5/7--| When Thom sings “...days”
A|6—8------|
E|-8-------|
“Comes like a comet...”
G|------|------|
D|------|------|
A|------|------|
E|5-5-55|4-4-44|

G|----0-|------|
D|1-3---|----0-| When Thom sings “..Friends”
A|------|1-3---|
E|------|------|
BRIDGE 1: “one day he'll get to you...”
G|------|------|
D|------|------|
A|------|------|
E|5-5-55|4-4-44|

G|-------------|
D|-------------| When Thom sing “ho - ly cow”
A|-------------|
E|343-0-232-0-1|

COURUS 1:
A|3-3-3-3|6-6-6-6|5-5-5-5|8-8-8-8| (x4)

VERSE 2: Is the same as verse 1
BRIDGE 2: Is the same as Bridge 1
COURUS 2: Same as Chorus 1
SOLO:	`
G|-------|-------|-------|-------|
D|-------|-------|-------|-------|
A|3-3-3-3|6-6-6-6|5-5-5-5|8-8-8-8| (x2)
E|-------|-------|-------|-------|

G|------|------|
D|------|------|
A|------|------| (x2)
E|5-5-55|4-4-44|

G|----0-|------|
D|1-3---|----0-|
A|------|1-3---|
E|------|------|

G|------|------|
D|------|------|
A|------|------| (x2)
E|5-5-55|4-4-44|

G|-------------|
D|-------------|
A|-------------|
E|343-0-232-0-1|

COURUS 3: Same as other verses
OUTRO:
G|----------------------------------------------------|
D|----------------------------------------------------|
A|---3--3-3-3-1-1-1-1-1-1-1--0-0-0--1/--3h6--3h6--3h6-|
E|----------------------------------------------------|

G|----------------------------------------------------|
D|--------------------------------------5-3-----5-3---|
A|--1h3--3-3-3-1-1-1-1-1-1-1--0-0-0--1/-----6-3-----6-|
E|----------------------------------------------------|

G|-----------------------------------------------------|
D|-----------------------------------------------------|
A|--1h3--3-3-3-1-1-1-1-1-1-1--0-0-0--1/--3h6--3h6--3h6-|
E|-----------------------------------------------------|

G|---------------------------------------------------|
D|---------------------------------------------------|
A|---3--3-3-3-1-1-1-1-1-1-1-/-8\------3/------8\-----|
E|---------------------------------------------------|

G|-----------------------------------------------------|
D|-----------------------------------------------------|
A|--1h3--3-3-3-1-1-1-1-1-1-1--0-0-0--1/--3h6--3h6--3h6-|
E|-----------------------------------------------------|

G|---------------------------------------------------|
D|---------------------------------------------------|
A|--1h3--3-3-3-1-1-1-1-1-1-1--0-0-0--/--8\-----------|
E|---------------------------------------------------|

Now just repeat the 2 lines above over a couple more times until the end of the song.
            
Submit corrections

comments powered by Disqus
↑ Back to top | Radiohead Bass for Just. Lyrics for acoustic guitar and electric guitar. Tablatures and chords are parodies/interpretations of the original songs. You may use it for private study, scholarship, research or language learning purposes only