» » »

Just Tabs (ver.3)

Artists:  A B C D E F G H I J K L M N O P Q R S T U V W X Y Z # 

Just Tabs (ver.3)

Radiohead
Rating:
0/5 (0 votes)

Hard to play? Try these video lessons and learn fast.
                THE RIGHT WAY

      guitar 1 is the acoustic Rhythm, guitar 2 is electric





	  guitar 1: opening 
	e|--------------------------------------------|
	b|-5--5-5-5---8-8-8--7-7-7-7-7---10-10-10-----|
	g|-5--5-5-5---8-8-8--7-7-7-7-7---10-10-10-----|
	d|-5--5-5-5---8-8-8--7-7-7-7-7---10-10-10-----|
	a|-3--3-3-3---6-6-6--5-5-5-5-5---8--8--8------|
	E|--------------------------------------------|




	  guitar 1: verese 
	
	   Am          Ab  	D#   A#
	e|--5-----------4-------------6-------|
	b|--5-----------4--------8----6-------|
	g|--5-----------5--------8----7-------|x2
	d|--7-----------6--------8----8-------|
	a|--7-----------6--------6----8-------|
	E|--5-----------4-------------6-------|


	guitar 1: pre-chorus (so when i get to you...)

			     G-maj  F#   F-maj
	e|---------------------3-----2-----1-------|
	b|---------------------3-----2-----1-------|
	g|---------------------4-----3-----2-------|
	d|--Am-------Ab--------5-----4-----3-------|
	a|---------------------5-----4-----3-------|
	E|---------------------3-----2-----1-------|




	guitar 1: Chorus

	   c-Maj
	e|--0------------------------------------|
	b|--1------------------------------------|
	g|--0------------------------------------|
	d|--2---------F#--------F-maj-----------|
	a|--3-----------------------------------|
	E|---------------------------------------|




	  guitar 1: Transition
	e|--------------------------------------------|
	b|-5--5-5-5---8-8-8--7-7-7-7-7---10-10-10-----|
	g|-5--5-5-5---8-8-8--7-7-7-7-7---10-10-10-----|x2
	d|-5--5-5-5---8-8-8--7-7-7-7-7---10-10-10-----|
	a|-3--3-3-3---6-6-6--5-5-5-5-5---8--8--8------|
	E|--------------------------------------------|



	guitar 1: solo
	
	   E-maj
	e|--0------------------------------------|
	b|--0------------------------------------|
	g|--1------------------------------------|
	d|--2-----G-maj-----F#------F-maj--------|
	a|--2------------------------------------|
	E|--0------------------------------------|



	guitar 1: Bridge

	    Am          Ab      D#   A#
	e|--5-----------4-------------6-------
	b|--5-----------4--------8----6-------
	g|--5-----------5--------8----7-------
	d|--7-----------6--------8----8-------
	a|--7-----------6--------6----8-------
	E|--5-----------4-------------6-------


			     G-maj  F#   F-maj
	---------------------3-----2-----1-------|
	---------------------3-----2-----1-------|
	---------------------4-----3-----2-------|
	--Am-------Ab--------5-----4-----3-------|
	---------------------5-----4-----3-------|
	---------------------3-----2-----1-------|



	guitar 1: ending


		     Ab	  A-maj
	e|------------6----5----------------------|
	b|------------6----5----------------------|
	g|------------7----6-------D#-------------|
	d|---C-maj----8----7----------------------|
	a|------------8----7----------------------|
	E|------------6----5----------------------|
            
Hard to play? Try these video lessons and learn fast. | Correct




comments powered by Disqus
↑ Back to top | Tablatures and chords are parodies/interpretations of the original songs. You may use it for private study, scholarship, research or language learning purposes only