» » »

Radiohead, In Limbo Bass tabs (ver.2)

Artists:  A B C D E F G H I J K L M N O P Q R S T U V W X Y Z # 

In Limbo Bass tabs (ver.2)

Radiohead Tabs
Rating:
0/5 (0 votes)
In Limbo lessons Tabs too difficult? Try these video lessons and learn fast
                I learned this by ear and i have 2 methods for playing this song.
Remember to repeat these parts alot through the song.


Method 1

First Part.

G:--------------|
D:-12-----------|
A:----12-7-10-8-|
E:--------------|

Second Part.

G:------8-------9-|
D:-10-8---10-10---|
A:----------------|
E:----------------|

I think that the first method is the easiest.
Method 2 is more for beginners.


Method 2

First Part.

G:-----------|
D:-----------|
A:-5---------|
E:---5-0-3-1-|

Second Part.

G:---------------|
D:-----1---------|
A:-3-1---3-3-2/7-|
E:-----------0~~-|

~ = Hold note
/ = Slide
            
Submit corrections

comments powered by Disqus
↑ Back to top | Radiohead Bass for In Limbo. Lyrics for acoustic guitar and electric guitar. Tablatures and chords are parodies/interpretations of the original songs. You may use it for private study, scholarship, research or language learning purposes only