» » »

Radiohead, I Might Be Wrong Bass tabs (ver.2)

Artists:  A B C D E F G H I J K L M N O P Q R S T U V W X Y Z # 

I Might Be Wrong Bass tabs (ver.2)

Radiohead Tabs
 Rating:
4/5 (4 votes)
I Might Be Wrong lessons Tabs too difficult? Try these video lessons and learn fast
1
                Band: Radiohead
Bassist: Colin Greenwood


Drop D Tuning (D-A-D-G)


~ let ring
/ slide
/// long slide
h hammer
p pull off
z silence
() ghost note
X dead note strummed

INTRO
               i used to think......
G------------||-------------------------|
D------------||----12-12~---12/10p0~----|
A------------||-------------------------|x4
D-0~~~~~--z--||-0~----------------------|

..there was no future left at all....
G---------------------------------------|
D---------------------------------------|
A---------------------------------------|
D----8///3-3--3/1p0-----8////3-3--3/1p0-|

G-----------------------------|
D--------12-12~---12/10p0-----|
A-----------------------------|x2
D----0~-----------------------|


Open uuuup! and leeet me iiin! :

G------------------------------------------------|
D-0h2h3-----------------0h2h3--------------------|
A------0h3h5~----------------0h3h5-x-x-----------|x4
D-------------3///0--------------------3-5-3///0-|


lets go down the waterfall....
G----------|
D----Z-----|
A----Z-----|
D----Z-----|


..at all......nothing at all

G-----------------------------|
D--------12-12~---12/10p0-----|
A-----------------------------|x6
D----0~-----------------------|


....what would i do?......

G------------------------------------------------|
D-0h2h3-----------------0h2h3--------------------|
A------0h3h5~----------------0h3h5-x-x-----------|xcouple of
D-------------3///0--------------------3-5-3///0-|times

lets go down the waterfall....

G----------|
D----Z-----|
A----Z-----|
D----Z-----|


..baack......never look back.....

G----------||-------------------------|
D----------||----12-12~---12/10p0-----|
A----------||-------------------------|x2
D----0~~~--||-0-----------------------|


G------------------------------------------------|
D-0h2h3-----------------0h2h3--------------------|
A------0h3h5~----------------0h3h5-x-x-----------|x'til break
D-------------3///0--------------------3-5-3///0-|


Interlude

guitar alone x1
G----Z----|
D----Z----|
A----Z----|
E----Z----|

2nd time:
bass comes in
G---------------------|------------------|--------|
D---------------------|------------------|--------|
A--5~~~~-5~/-3~/-1~~~~|-1~~/-0~~~~~------|--------|
E---------------------|------------5~~~~-|--(3)~~-|


G------------------------------------------------|
D-0h2h3-----------------0h2h3--------------------|
A------0h3h5~----------------0h3h5-x-x-----------|x'til end
D-------------3///0--------------------3-5-3///0-|

G-------------------------|
D-0h2h3-------------------|
A------0h3h5~-------------|
D-------------3///0-X-----|

notes:
this tab is closer to the live version than to the one on amnesiac.but works for both,.
colin is a great improviser and this version does not attempt to recreate those slight 
he does live, but i find it easier to improvise when sticking to these main riffs. just 
it a try.

also verse could work like this:

G--------------------------|
D-----12-12~---------------|
A--------------------------|x4
D--0~----------12/10p0-----|
but i prefer using high d string.

i hope u find this tab useful....

please rate & comment!

colin greenwood is amazing!!!
***************************************************************************
            
Submit corrections

comments powered by Disqus
↑ Back to top | Radiohead Bass for I Might Be Wrong. Lyrics for acoustic guitar and electric guitar. 1 Tablatures and chords are parodies/interpretations of the original songs. You may use it for private study, scholarship, research or language learning purposes only