» » »

Radiohead, Fake Plastic Trees Bass tabs (ver.3)

Artists:  A B C D E F G H I J K L M N O P Q R S T U V W X Y Z # 

Fake Plastic Trees Bass tabs (ver.3)

Radiohead Tabs
Rating:
0/5 (0 votes)
Fake Plastic Trees lessons Tabs too difficult? Try these video lessons and learn fast
                Bassist: Colin Greenwood
Tuning: E A D G
Contains mistakes but Colin’s feel is there, rhythmically tasteful and on the beat.

Bass comes in at :25.

Verse 1   
                                        
G|------------------|------------------|------------------|------------------|
D|------------------|----------------4-|----------(4)(4)--|-(4)(4)-----------|
A|------------------|--------------7---|------------------|----------(7)-7/4-|
E|-5----------------|-Hold 5-----------|------------------|------------------|

|------------------|----------------------|------------------|------------------|
|------------------|----------------------|------------------|------------------|
|-\5-5-5-5-5-5-5-7-|--------------------4-|-5-5-5-5-5-5-5-55-|-5-5-5-5-5-4--0---|
|------------------|-5-5-5-(5)(5)-5-5-5---|------------------|------------------|

Chorus 1

|------------------|------------------|------------------|------------------|
|------------------|------------------|------------------|------------------|
|-2----------------|-Hold 2-----------|-0----------------|-Hold 0-----------|
|------------------|------------------|------------------|------------------|

|------------------|------------------|------------------|------------------|
|------------------|------------------|------------------|------------------|
|-2----------------|-Hold 2-----------|-0----------------|-(0)--------------|
|------------------|------------------|------------------|------------------|

Verse 2

|------------------|------------------|------------------|------------------|
|---------------7--|-----7----7-7-----|------------------|------------------|
|------------------|---------7----5-7-|-9------9---(9)---|-9---9-xx9-7--\9--|
|-5---5---x-5-5----|-5-5--------------|------------------|------------------|

|------------------|------------------|------------------|------------------|
|------------------|------------------|------------------|------------------|
|-5--(5)--5(5)(5)/-|-0---0--x0---0----|-5---5--x5-5(5)---|-5-5-5--x5(5)-5-7-|
|------------------|------------------|------------------|------------------|

|-----------------|------------------|-------------------|------------------|
|-----7------7----|-----7-------7----|-------------------|------------------|
|-----------------|---------------57-|-9-------9-9(9)(9)-|-9-9-9-999-7-7-/4-|
|-5-----x5-5---5--|-5------x5-5------|-------------------|------------------|

|------------------|------------------|------------------|------------------|
|------------------|------------------|------------------|------------------|
|-\5-5-5---5-5-5-7-|-0-0-0---00-0--4--|-5-----5-5-5-5-5--|-5-5(5)----4--0---|
|------------------|------------------|------------------|------------------|

Chorus 2

|------------------|------------------|------------------|------------------|
|------------------|------------------|------------------|------------------|
|-2----------------|-Hold 2-----------|-0----------------|-Hold 0-----------|
|------------------|------------------|------------------|------------------|

|------------------|------------------|------------------|------------------|
|------------------|------------------|------------------|------------------|
|-2----------------|-Hold 2-----------|-0-------0--------|-0-------00000000-|
|------------------|------------------|------------------|------------------|

Verse 3

|------------------|------------------|------------------|------------------|
|-----7---------7--|-----7---7-7------|------------------|------------------|
|------------------|----------7--5-7--|-9-------9-9(9)---|-9------x9-7/--4--|
|-5--------x5-5----|x5-5---5----------|------------------|------------------|

|------------------|------------------|------------------|------------------|
|------------------|-----7-------7----|------------------|------------------|
|-5-555--x5-5-5-77-|---------------44-|-5---5--x5-5-5-44-|-5-555-445-7-5-4--|
|------------------|-5(5)---x5-55-----|------------------|------------------|

|------------------|------------------|------------------|------------------|
|-----7--x7-7-7----|-----7--x777------|------------------|------------------|
|------------------|-------------5-7--|-9-------9-9------|-9-9-9-999-7-7/4--|
|-5-------------55-|-5----------------|------------------|------------------|

					 Chorus 3

|------------------|------------------|------------------|------------------|
|------------------|------------------|------------------|------------------|
|-5---5--x5-5-5----|----------------4-|-5----------------|-Hold 5-----------|
|------------------|-5---5--x5-5555---|------------------|------------------|

|------------------|------------------|------------------|------------------|
|------------------|------------------|------------------|------------------|
|-2----------------|-Hold 2-----------|-0------(0)-------|-Hold 0-----------|
|------------------|------------------|------------------|------------------|

|------------------|------------------|------------------|------------------|
|------------------|------------------|------------------|------------------|
|-2------(2)-------|(2)---------------|-0----------------|-Hold 0-----------|
|------------------|------------------|------------------|------------------|

Outro

|------------------|------------------|------------------|------------------|
|------------------|------------------|------------------|------------------|
|-2----------------|-Hold 2-----------|-0----------------|-Hold 0-----------|
|------------------|------------------|------------------|------------------|

|------------------|------------------|------------------|------------------|
|------------------|------------------|-7----------------|-Hold 7-----------|
|(2)---------------|-Hold 2-----------|------------------|------------------|
|------------------|------------------|------------------|-------------0055-|

|------------------|------------------|------------------|------------------|
|------------------|------------------|------------------|------------------|
|-2----------------|-Hold 2------5544-|-0----------------|(0)---------------|
|------------------|------------------|------------------|------------0-5\--|

|------------------|------------------|------------------|------------------|
|------------------|------------------|------------------|-------FADE-------|
|------------------|--------------5-4-|-0----------------|------------------|
|-\7---------------|-Hold 7-----------|------------------|------------------|


Hold * = Hold Note
(*) = Ghost Note
/ = Slide Down
\ = Slide Up
x = Dead Note
            

comments powered by Disqus
↑ Back to top | Radiohead Bass for Fake Plastic Trees. Lyrics for acoustic guitar and electric guitar. Tablatures and chords are parodies/interpretations of the original songs. You may use it for private study, scholarship, research or language learning purposes only