» » »

Radiohead, Down Is The New Up Tabs (ver.2)

Artists:  A B C D E F G H I J K L M N O P Q R S T U V W X Y Z # 

Down Is The New Up Tabs (ver.2)

Radiohead Tabs
Rating:
0/5 (0 votes)
Down Is The New Up lessons Tabs too difficult? Try these video lessons and learn fast
                 
(My first tab, probably not great but sounds good to me.)

Tuning:Standard

e|---------------------------------2---2----3---2-----|----------------------|
B|---------------------------------4---4----4---4-----|----------------------|
G|---------------------------------4---4----4---4-----|--Repeat 5x----------|
D|--2------2----2-----2------------4---4----4---4-----|----------------------|
A|--2------2----2-----2-----5*------------------------|----------------------|
E|--------------------------3*------------------------|----------------------|

e|-------------------------3---3---------2----2-------|----------------------|
B|-2----2----2----2--2*----3---3---------3----3-------|----------------------|
G|-2----2----2----2--2*------------------2----2-------|--Repeat-2x-----------|
D|-2----2----2----2--2*-------------------------------|----------------------|
A|-------------------------2---2----------------------|----------------------|
E|-------------------------3---3----------------------|----------------------|

e|----------------------3----3---3---3--------6---6-------5---5--------------|
B|--1----1---1---1------4----4---4---4--------7---7-------4---4--------------|
G|--2----2---2---2------5----5---5---5--------8---8-------5---5--------------|
D|--2----2---2---2------5----5---5---5--------8---8-------4---4--------------|
A|----------------------3----3---3---3--------6---6--------------------------|
E|----------------------3----3---3---3--------6---6--------------------------|

e|------------------------------------|--------------------------------------|
B|------------------------------------|--------------------------------------|
G|--(5)(5)-(4)-------------------------|---Repeat-8x-------------------------|
D|---5--5---4--------------4----5-----|--------------------------------------|
A|---------------6---7----------------|--------------------------------------|
E|------------------------------------|--------------------------------------|

e|----------------------2---2--3---2-------|---------------------------------|
B|----------------------4---4--4---4-------|----------------------------------|
G|----------------------4---4--4---4-------|--------------------------------|
D|--2---2--2--2---------4---4--4---4-------|----Repeat-5x--------------------|
A|--2---2--2--2---5------------------------|---------------------------------|
E|----------------3------------------------|---------------------------------|

e|------------------3---3------2----3------|---------------------------------|
B|--2--2--2--2------3---3------3----2------|----------------------------------|
G|--2--2--2--2-----------------2----3------|----------------------------------|
D|--2--2--2--2-----------------------------|----Repeat 2x-------------------|
A|------------------2---2------------------|---------------------------------|
E|------------------3---3------------------|---------------------------------|

e|-------------------3--3--3------2---1----|---------------------------------|
B|--1---1---1---1----4--4--4------3---2----|---------------------------------|
G|--2---2---2---2----5--5--5------4---3----|----Repeat-2x--------------------|
D|--2---2---2---2----5--5--5------4---3----|---------------------------------|
A|-------------------3--3--3------2---1----|---------------------------------|
E|-------------------3--3--3------2---1----|---------------------------------|

e|----------------3---3----3--3------6----6------5----5----------------------|
B|--1--1--1--1----4---4----4--4------7----7------4----4----------------------|
G|--2--2--2--2----5---5----5--5------8----8------5----5----------------------|
D|--2--2--2--2----5---5----5--5------8----8------4----4----------------------|
A|----------------3---3----3--3------6----6----------------------------------|
E|----------------3---3----3--3------6----6----------------------------------|


e|---------------------------------------------------|----------------------|
B|---------------------------------------------------|-----------------------|
G|------(5)--(5)---(4)-------------------------------|-----------------------|
D|-------5----5-----4-------------------4----5-------|---Repeat-to-end------|
A|--------------------------6-----7------------------|-----------------------|
E|---------------------------------------------------|-----------------------|

| *  Play a bit faster
| /  slide up
| \  slide down
| h  hammer-on
| p  pull-off
| ~  vibrato
| +  harmonic
| x  Mute note
===============================================================================
            
Submit corrections

comments powered by Disqus
↑ Back to top | Radiohead Tabs for Down Is The New Up. Lyrics for acoustic guitar and electric guitar. Tablatures and chords are parodies/interpretations of the original songs. You may use it for private study, scholarship, research or language learning purposes only