» » »

Radiohead, Creep Bass tabs (ver.2)

Artists:  A B C D E F G H I J K L M N O P Q R S T U V W X Y Z # 

Creep Bass tabs (ver.2)

Radiohead Tabs
Rating:
0/5 (0 votes)
Creep lessons Tabs too difficult? Try these video lessons and learn fast
                intro
G----------------------------|----------------------------|
D----------------------------|----------------------------|
A----------------------------|--2----2-2----2----2-2------|
E--3---33-3---33---33-3---3--|------2------2----2------2--|

G----------------------------|----------------------------|
D----------------------------|----------------------------|
A--3----3-3----3----3-3---2--|--3----3-3----3--5--6-------|
E------3------3----3---------|------3------3---------1----|

riff 1
G----------------------------|----------------------------|
D----------------------------|----------------------------|
A----------------------------|--2----2-2----2----2-2------|
E--3---33-3---33---33-3---3--|------2------2----2------2--|

G----------------------------|----------------------------|
D----------------------------|-----------------------3----|
A--3----3-3----3----3-3---2--|--3----3-3----3--5--6-------|
E------3------3----3---------|------3------3--------------|

riff 2
G-------------------------------|-------------------------------|
D-------------------------------|-------------------------------|
A-------------------------------|--2----2-2----2----------------|
E--3---33-3---33---3-3h5--3--2--|------2------2----2-3h5--3--2--|

G-------------------------------|----------------------------|
D-------------------------------|-----------------------3----|
A--3----3-3----3---3-3h5--3--2--|--3----3-3----3--5--6-------|
E------3------3-----------------|------3------3--------------|

riff 3
G-------------------------------|----------------------------|
D-------------------------------|----------------------------|
A-------------------------------|--2----2-2----2----2---2-5--|
E--3---33-3---33---3-3h5--3--2--|------2------2----2--2------|

G----------------------------|----------------------------|
D----------------------------|----------------------------|
A--3----3-3----3----3---3-5--|--3----3-3----3-------------|
E------3------3----3--3------|------3------3--------------|

outro
G----------------------------|----------------------------|
D----------------------------|----------------------------|
A----------------------------|--2----2-2----2----2-2------|
E--3----3-3----3----3-3------|----------------------------|

G----------------------------|----------------------------|
D----------------------------|----------------------------|
A--3----3-3----3----3-3------|--3----3-3----3----3-3------|
E----------------------------|----------------------------|

end
G-----------------|
D-----------------|
A----------2/5----|
E--3---5----------|

*Play like this in 2nd chorus
 riff1 > riff2 > riff3
            
Submit corrections

comments powered by Disqus
↑ Back to top | Radiohead Bass for Creep. Lyrics for acoustic guitar and electric guitar. Tablatures and chords are parodies/interpretations of the original songs. You may use it for private study, scholarship, research or language learning purposes only