» » »

Radiohead, Climbing Up The Walls Bass tabs (ver.2)

Artists:  A B C D E F G H I J K L M N O P Q R S T U V W X Y Z # 

Climbing Up The Walls Bass tabs (ver.2)

Radiohead Tabs
 Rating:
4/5 (4 votes)
Climbing Up The Walls lessons Tabs too difficult? Try these video lessons and learn fast
1
                

actually the bass it's played on keyboards 

intro:
  1 + 2 + 3 + 4 +  1 + 2 + 3 + 4 +   1 + 2 + 3 + 4 +  1 + 2 + 3 + 4 +
G|----------------|-----------------|----------------|----------------|
D|----------------|-----------------|----------------|----------------|
A|2---------------|-----------------|----------------|----------------| x4
E|----------------|----3-------0----|----------------|----3-----------|

vrese:
  1 + 2 + 3 + 4 +  1 + 2 + 3 + 4 +   1 + 2 + 3 + 4 +  1 + 2 + 3 + 4 +
G|----------------|-----------------|----------------|----------------|
D|----------------|-----------------|----------------|----------------|
A|2---------------|-----------------|----------------|------------0---| x3
E|----------------|----3-------0----|----------------|----3-----------|


   1 + 2 + 3 + 4 +  1 + 2 + 3 + 4 +  
G|----------------|-----------------|
D|----------------|-----------------|
A|2---------------|-----------------|
E|----------------|----3-------0----|

bridge:
  1 + 2 + 3 + 4 +  1 + 2 + 3 + 4 +   1 + 2 + 3 + 4 +  1 + 2 + 3 + 4 +
G|----------------|-----------------|----------------|----------------|
D|----------------|-----------------|----------------|----------------|
A|--------------7-|7----------------|--------------7-|7-------5---3---| 
E|----------------|----0------------|----0-----------|----0-----------|

verse:

  1 + 2 + 3 + 4 +  1 + 2 + 3 + 4 +   1 + 2 + 3 + 4 +  1 + 2 + 3 + 4 +
G|----------------|-----------------|----------------|----------------|
D|----------------|-----------------|----------------|----------------|
A|2---------------|-----------------|----------------|------------0---| x3
E|----------------|----3-------0----|----------------|----3-----------|
 
  1 + 2 + 3 + 4 +  1 + 2 + 3 + 4 +   1 + 2 + 3 + 4 +  1 + 2 + 3 + 4 +
G|----------------|-----------------|----------------|----------------|
D|----------------|-----------------|----------------|----------------|
A|2---------------|-----------------|----------------|----------------| 
E|----------------|----3-------0----|----------------|3-------2-------| 

chorus:

  1 + 2 + 3 + 4 +  1 + 2 + 3 + 4 +   1 + 2 + 3 + 4 +  1 + 2 + 3 + 4 +
G|----------------|-----------------|----------------|----------------|
D|----------------|-----------------|----------------|----5---7-------|
A|----------------|-----------------|----------------|5/7-------------| x2
E|0---------------|----2-------3----|----------------|----------------|

bridge:
 
  1 + 2 + 3 + 4 +  1 + 2 + 3 + 4 +   1 + 2 + 3 + 4 +  1 + 2 + 3 + 4 +
G|----------------|-----------------|----------------|----------------|
D|----------------|-----------------|----------------|----------------|
A|--------------7-|7----------------|----------------|----------------| 
E|0---------------|----0------------|0---------------|----------------|

  1 + 2 + 3 + 4 +  1 + 2 + 3 + 4 +   1 + 2 + 3 + 4 +  1 + 2 + 3 + 4 +
G|----------------|-----------------|----------------|----------------|
D|----------------|-----------------|----------------|----------------|
A|--------------7-|7----------------|--------------7-|7-------5---3---| 
E|0---------------|----0------------|0---------------|----0-----------|

verse:

  1 + 2 + 3 + 4 +  1 + 2 + 3 + 4 +   1 + 2 + 3 + 4 +  1 + 2 + 3 + 4 +
G|----------------|-----------------|----------------|----------------|
D|----------------|-----------------|----------------|----------------|
A|2---------------|-----------------|----------------|------------0---| x3
E|----------------|----3-------0----|----------------|----3-----------|

  1 + 2 + 3 + 4 +  1 + 2 + 3 + 4 +   
G|----------------|-----------------|
D|----------------|-----------------|
A|2---------------|-----------------| 
E|----------------|----3-------0----|

bridge:

  1 + 2 + 3 + 4 +  1 + 2 + 3 + 4 +   1 + 2 + 3 + 4 +  1 + 2 + 3 + 4 +
G|----------------|-----------------|----------------|----------------|
D|----------------|-----------------|----------------|----------------|
A|--------------7-|7----------------|--------------7-|7-------5---3---| 
E|----------------|----0------------|0---0-----------|----0-----------|

verse:

  1 + 2 + 3 + 4 +  1 + 2 + 3 + 4 +   1 + 2 + 3 + 4 +  1 + 2 + 3 + 4 +
G|----------------|-----------------|----------------|----------------|
D|----------------|-----------------|----------------|----------------|
A|2---------------|-----------------|----------------|------------0---| x3 
E|----------------|----3-------0----|----------------|----3-----------|

  1 + 2 + 3 + 4 +  1 + 2 + 3 + 4 +   1 + 2 + 3 + 4 +  1 + 2 + 3 + 4 +
G|----------------|-----------------|----------------|----------------|
D|----------------|-----------------|----------------|----------------|
A|2---------------|-----------------|----------------|----------------| 
E|----------------|----3-------0----|----------------|3-------2-------|

chorus:

  1 + 2 + 3 + 4 +  1 + 2 + 3 + 4 +   1 + 2 + 3 + 4 +  1 + 2 + 3 + 4 +
G|----------------|-----------------|----------------|----------------|
D|----------------|-----------------|----------------|----5---7-------|
A|----------------|-----------------|----------------|5/7-------------| x2
E|0---------------|----2-------3----|----------------|----------------|

bridge:

  1 + 2 + 3 + 4 +  1 + 2 + 3 + 4 +   1 + 2 + 3 + 4 +  1 + 2 + 3 + 4 +
G|----------------|-----------------|----------------|----------------|
D|----------------|-----------------|----------------|----------------|
A|--------------7-|--5-7------------|--5-----7-----7-|--5-7---5---3---| 
E|0-----------0---|0----------------|0---0-0-----0---|0---------------|

verse: 

  1 + 2 + 3 + 4 +  1 + 2 + 3 + 4 +   1 + 2 + 3 + 4 +  1 + 2 + 3 + 4 +
G|----------------|-----------------|----------------|----------------|
D|----------------|-----------------|----------------|----------------|
A|2---------------|-----------------|----------------|------------0---| x3
E|----------------|----3-------0----|----------------|----3-----------|

    1 + 2 + 3 + 4 +  1 + 2 + 3 + 4 +   1 + 2 + 3 + 4 +  1 + 2 + 3 + 4 +
G|----------------|-----------------|----------------|----------------|
D|----------------|-----------------|----------------|----------------|
A|2---------------|-----------------|----------------|----------------| 
E|----------------|----3-------0----|----------------|3-------2-------|

chorus:

  1 + 2 + 3 + 4 +  1 + 2 + 3 + 4 +   1 + 2 + 3 + 4 +  1 + 2 + 3 + 4 +
G|----------------|-----------------|----------------|----------------|
D|----------------|-----------------|----------------|----5---7-------|
A|----------------|-----------------|----------------|5/7-------------| x2
E|0---------------|----2-------3----|----------------|----------------|


outro:

 1 + 2 + 3 + 4 +  1 + 2 + 3 + 4 +   1 + 2 + 3 + 4 +  1 + 2 + 3 + 4 +
G|----------------|-----------------|----------------|----------------|
D|----------------|-----------------|----------------|----------------|
A|--------------7-|7----------------|--------------7-|7---------------| 
E|0---------------|----0------------|0---------------|----0-----------|
            
Submit corrections

comments powered by Disqus
↑ Back to top | Radiohead Bass for Climbing Up The Walls. Lyrics for acoustic guitar and electric guitar. 1 Tablatures and chords are parodies/interpretations of the original songs. You may use it for private study, scholarship, research or language learning purposes only