» » »

Radiohead, Bloom Bass tabs (ver.2)

Artists:  A B C D E F G H I J K L M N O P Q R S T U V W X Y Z # 

Bloom Bass tabs (ver.2)

Radiohead Tabs
 Rating:
4/5 (4 votes)
Bloom lessons Tabs too difficult? Try these video lessons and learn fast
1
                Bloom


   D                                               G            
g|-------------------9-----10-------------------------------------------------------------------|
d|-------------12----------------------(12)----------------12----10----------------12----10-----|
a|----------(12)---12---------------(12)-----------------------12----1210--------------12----12-|
e|-10--------------------10---------------------------------------------------------------------|


This riff comes in at 0:47, with the notes in brackets only played once or twice.
It continues until 2:17.

It comes back at 3:24 until 4:41 ending on


g|----|
d|----|
a|----|
e|-10-|


The second half is then played right at the end, at 5:01, also ending on

g|----|
d|----|
a|----|
e|-10-|

It's also likely that 

g|---------|
d|---12\---|
a|---------|
e|---------|

is used as a background sound throughout the song.


Cheers.
            
Submit corrections

comments powered by Disqus
↑ Back to top | Radiohead Bass for Bloom. Lyrics for acoustic guitar and electric guitar. 1 Tablatures and chords are parodies/interpretations of the original songs. You may use it for private study, scholarship, research or language learning purposes only