» » »

Racoon, Love You More Tabs (ver.3)

Artists:  A B C D E F G H I J K L M N O P Q R S T U V W X Y Z # 

Love You More Tabs (ver.3)

Racoon Tabs
 Rating:
4/5 (4 votes)
Love You More lessons Tabs too difficult? Try these video lessons and learn fast
1
                Tuning: Down 1 semitone

Intro:

   B                          A
e|-------0-----0-----0------|-----------------------|
B|---3-----3-----3-----3----|-3\2-------0-----------|
G|-----2-----2-----2-----2--|-----2-------2-----2---|
D|--------------------------|-------2---------2-----|
A|-2------------------------|-0-------0-----0-------|
E|--------------------------|-----------------------|

   B                          A         
e|-------0-----0-----0-2----|-----------0------5----|
B|---3-----3-----3----------|-3\2---------0------0--|
G|-----2-----2-----2--------|-----2---------2------2|
D|--------------------------|-------2---------------|
A|-2------------------------|-0-------0-------------|
E|--------------------------|-----------------------|

Verse

   B     Clouds..             A
e|-------0-----0-----0------|-----------------------|
B|---3-----3-----3-----3----|-3\2-------0-----------|
G|-----2-----2-----2-----2--|-----2-------2-----2---|
D|--------------------------|-------2---------2-----|
A|-2------------------------|-0-------0-----0-------|
E|--------------------------|-----------------------|

   B     I Found..            A         
e|-------0-----0-----0-2----|-----------0------5----|
B|---3-----3-----3----------|-3\2---------0------0--|
G|-----2-----2-----2--------|-----2---------2------2|
D|--------------------------|-------2---------------|
A|-2------------------------|-0-------0-------------|
E|--------------------------|-----------------------|


   B     Clear white..        A
e|-------0-----0-----0------|-----------------------|
B|---3-----3-----3-----3----|-3\2-------0-----------|
G|-----2-----2-----2-----2--|-----2-------2-----2---|
D|--------------------------|-------2---------2-----|
A|-2------------------------|-0-------0-----0-------|
E|--------------------------|-----------------------|

   B     The Waves            A         verse ending
e|-------0-----0-----0-2----|-----------0------5----|
B|---3-----3-----3----------|-3\2---------0------0--|
G|-----2-----2-----2--------|-----2---------2------2|
D|--------------------------|-------2---------------|
A|-2------------------------|-0-------0-------------|
E|--------------------------|-----------------------|


Chorus:

   EI've..               A
e|---3---3---3p2-------|---------------------|
B|---3---3-------3-----|-3p2-------0---------|
G|-----------------2---|-----2-------2-----2-|
D|-----------0-------0-|-------2---------2---|
A|---------------------|-0-------0-----0-----|
E|-0----0-0------------|---------------------|

   E And everyday..      A
e|---3---3---3p2-------|----------0---5------|
B|---3---3-------3-----|-2----3--------------|
G|-----------------2---|-2--2---2---2--------|
D|-----------0-------0-|---------------------|
A|---------------------|-0--------------0----|
E|-0----0-0------------|---------------------|

   E  you look..         A
e|---3---3---3p2-------|---------------------|
B|---3---3-------3-----|-3p2-------0---------|
G|-----------------2---|-----2-------2-----2-|
D|-----------0-------0-|-------2---------2---|
A|---------------------|-0-------0-----0-----|
E|-0----0-0------------|---------------------|

   G  everyday..         A
e|----------------0----|---------------------|
B|---3---3--3-------3--|-3p2-----2-----------|
G|---0---0----2-------2|-----2---------------|
D|----------0---0------|-0-----2-------------|
A|---------------------|---------------------|
E|-3----3-3------------|---------------------|

Verse:
Clouds above go sailing by
I found my meaning in this life
Clear white is flying in my eyes,
underneath a blue, blue sky
The waves come rolling in with the tide.

Chorus:
I've been away too long
And every day I missed you more.
You look like you did before,
only prettier.
Every day I love you more.

Verse:
All the people rushing by, by, by
Looking for meaning in this life
So used up, and blinded by lies,
they're underneath the blue, blue sky
The way they seldom seem to smile,
I don't know why.

Chorus:
'Cause I've been away too long
and every day I missed you more.
You look like you did before,
only prettier
Every day I love you more
I love you more,
everyday I love you more,
and more

Cause I've been away too long
And every day I missed you more.
You look like you did before,
only prettier.
And every day I missed you more,
and more and more and more and more.
I've been away too long
And every day I missed you more.
Oh you look like you did before,
only prettier
Everyday I love you more.

I love you more.
Everyday I love you more 
            
Submit corrections

comments powered by Disqus
↑ Back to top | Racoon Tabs for Love You More. Lyrics for acoustic guitar and electric guitar. 1 Tablatures and chords are parodies/interpretations of the original songs. You may use it for private study, scholarship, research or language learning purposes only