» » »

Love You More Tabs (ver.1)

Artists:  A B C D E F G H I J K L M N O P Q R S T U V W X Y Z # 

Love You More Tabs (ver.1)

Racoon
Rating:
4/5 (16 votes)

Hard to play? Try these video lessons and learn fast.
                ======================================================



Notes:

was missing some very important parts.

======================================================

Tuning: Down 1 semitone (Eb Ab Db Gb Bb Eb)

verse:

   B                          A
E[-------0-----0-----0------|-----------------------|
B[---3-----3-----3-----3----|-3\2-------0-----------|
G[-----2-----2-----2-----2--|-----2-------2-----2---|
D[--------------------------|-------2---------2-----|
A[-2------------------------|-0-------0-----0-------|
E[--------------------------|-----------------------|

   B                          A         verse ending
E[-------0-----0-----0-2----|-----------0------5-----|
B[---3-----3-----3----------|-3\2---------0------0---|
G[-----2-----2-----2--------|-----2---------2------2-|
D[--------------------------|-------2----------------|
A[-2------------------------|-0-------0--------------|
E[--------------------------|------------------------|


chorus:

   E                     A
E[---3---3---3p2-------|---------------------|
B[---3---3-------3-----|-3p2-------0---------|
G[-----------------2---|-----2-------2-----2-|
D[-----------0-------0-|-------2---------2---|
A[---------------------|-0-------0-----0-----|
E[-0----0-0------------|---------------------|

   E                     A
E[---3---3---3p2-------|----------0---5------|
B[---3---3-------3-----|-2----3--------------|
G[-----------------2---|-2--2---2---2--------|
D[-----------0-------0-|---------------------|
A[---------------------|-0--------------0----|
E[-0----0-0------------|---------------------|

   E                     A
E[---3---3---3p2-------|---------------------|
B[---3---3-------3-----|-3p2-------0---------|
G[-----------------2---|-----2-------2-----2-|
D[-----------0-------0-|-------2---------2---|
A[---------------------|-0-------0-----0-----|
E[-0----0-0------------|---------------------|

   G        D            A
E[----------------0----|---------------------|
B[---3---3--3-------3--|-3p2-----2-----------|
G[---0---0----2-------2|-----2---------------|
D[----------0---0------|-0-----2-------------|
A[---------------------|---------------------|
E[-3----3-3------------|---------------------|

======================================================
            
Hard to play? Try these video lessons and learn fast. | Correct




comments powered by Disqus
↑ Back to top | Tablatures and chords are parodies/interpretations of the original songs. You may use it for private study, scholarship, research or language learning purposes only