» » »

Cum On Feel The Noize Tabs (ver.2)

Artists:  A B C D E F G H I J K L M N O P Q R S T U V W X Y Z # 

Cum On Feel The Noize Tabs (ver.2)

Quiet Riot
Rating:
0/5 (0 votes)

Hard to play? Try these video lessons and learn fast.
                (Solo)

Note:
 I admit that i did not create this tab. i give credit to the version 2
tab of this entire song. i copied the solo and removed the ghost notes and made slight 
im posting this tab for those who wanna learn the solo only.

|----------------------------------------------------|
|----------------------------------------------------|
|----------------------------------12h14p12----------|
|----------------------12h14p12h14----------14p12h14-|
|----------12h14p12h14-------------------------------|
|-15p12h15-------------------------------------------|

|----------------------------------12h15p12----12-|
|----------------------12h15p12h15----------15----|
|----------12h14p12h14----------------------------|
|-14p12h14----------------------------------------|
|-------------------------------------------------|
|-------------------------------------------------|

|-15b17-----------15-14-15p14-15p14----|-14-------------------------------|
|-----------------------------------17-|----17b19r-----17-15--------12-13-|
|--------------------------------------|----------------------------------|
|--------------------------------------|----------------------------------|
|--------------------------------------|----------------------------------|
|--------------------------------------|----------------------------------|

|---------------------------|----------------------------|
|-15-13-12-13------12----12-|---------------------12-13--|
|---------------------14----|------14-12----12-14--------|
|---------------------------|------------14--------------|
|---------------------------|----------------------------|
|---------------------------|----------------------------|

|---------------------------|------------------------------|
|-15-13-12-13------12----12-|---------------------------12-|
|---------------------14----|------14-12-12b14r------------|
|---------------------------|------------------------------|
|---------------------------|------------------------------|
|---------------------------|------------------------------|

|-15b17--15b17--15b17r-----14h15b17r|------15b17-15p14------------|
|-----------------------------------|------------------15------12-|
|-----------------------------------|-----------------------------|
|-----------------------------------|-----------------------------|
|-----------------------------------|-----------------------------|
|-----------------------------------|-----------------------------|

|-15b17--15b17--15b17r-----14h15b17r|------15b17-15p14------------|
|-----------------------------------|------------------15------15-|
|-----------------------------------|-----------------------------|
|-----------------------------------|-----------------------------|
|-----------------------------------|-----------------------------|
|-----------------------------------|-----------------------------|

|-17b19---17b19r-------17b19r|------15-17-17b19-17b19-----15-|
|----------------------------|-------------------------------|
|----------------------------|-------------------------------|
|----------------------------|-------------------------------|
|----------------------------|-------------------------------|
|----------------------------|-------------------------------|

|     PM---|      PM---|      PM--------------------|
|-19-15-15-15-17-15-15-15-19-15-15-15-17-15-14-14---|
|---------------------------------------------------|
|---------------------------------------------------|
|---------------------------------------------------|
|---------------------------------------------------|
|---------------------------------------------------|

|-17p14-15p14----15------------------------------|
|-------------17----17p15h17-15-17b19r-----------|
|------------------------------------------------|
|------------------------------------------------|
|------------------------------------------------|
|------------------------------------------------|

|-------------------------------------------------|
|-------------------------------------------------|
|----------------------------------12h14p12-------|
|----------------------12h14p12h14----------14p12h|
|----------12h14p12h14----------------------------|
|-15p12h15----------------------------------------|

|----------------------------------12h15p12----12-|
|----------------------12h15p12h15----------15----|
|----------12h14p12h14----------------------------|
|-14p12h14----------------------------------------|
|-------------------------------------------------|
|-------------------------------------------------|

|-15b17----------14h15p14----14h15p14----|---------17-20b22----------------|
|-------------------------17----------17-|-17h19---------------------------|
|----------------------------------------|---------------------------------|
|----------------------------------------|---------------------------------|
|----------------------------------------|---------------------------------|
|----------------------------------------|---------------------------------|
            
Hard to play? Try these video lessons and learn fast. | Correct




comments powered by Disqus
↑ Back to top | Tablatures and chords are parodies/interpretations of the original songs. You may use it for private study, scholarship, research or language learning purposes only