» » »

Quiet Riot, Cum On Feel The Noize Bass tabs (ver.1)

Artists:  A B C D E F G H I J K L M N O P Q R S T U V W X Y Z # 

Cum On Feel The Noize Bass tabs (ver.1)

Quiet Riot Tabs
 Rating:
4.5/5 (8 votes)
Cum On Feel The Noize lessons Tabs too difficult? Try these video lessons and learn fast
                -------------------------------------------------------------------------------
			     Cum on Feel the Noize - Quiet Riot
-------------------------------------------------------------------------------


Tuning: Standard EADG

Firstly all credit for the awesome main riff has to go to Greg Miranda 
without whom i was seriously

struggling to hear the main riff notes. his tab was great but i just felt it was missing 
bits or just didnt sound quite

right in certain areas. As such here is my variation of the song, and i far from wanting 
copy Greg's tab this
is purely the tab i adapted to make things easier on myself timingwise, and add those 
bits i felt were missing.

please leave any comments you might have about it here or contact me via email

Intro/Verse (thanks again Greg)
G|[----------]-------------------------------------------------------------------|
D|[----------]-------------------------------------------------------------------|
A|[----------]-----------------2-2-2-2-2-2-2-------------------------------------|
E|[-11/0-0-3-]--3-3-3-3-3-3-3-----------------0-0-0-0-0-0----0-2-0-3-0-4-0-5-----|

G|-------------------------------------------------------------------------------|
D|-------------------------------------7-5--------------------------------7-5----|
A|-------------------------5-5-5-5-5-5-----7-5--------------------5-5-5-5-----7-5|
E|-5-5-5-5-5-5-3-3-3-3-3-3----------------------5-5-5-5-5-3-3-3-3----------------| (x2)

G|-------------------------------------------------------------------------------|
D|-------------------------------------------------------------------------------|
A|-3-3-3-3-3-3-3-3-3--0-0-0-0-0-0-0-0--------------------------------------------|
E|-------------------------------------------------------------------------------|

Chorus
G|-------------------------------------------------------------------------------|
D|-------------------------------------------------------------------------------|
A|-------------------------------------------------------------------------------|
E|-3-3-3-3--2-2-2-2--0-0-2-0-3-0-4-0-5---3-3-3-3--2-2-2-2--0-0-2-0-3-0-4-0-5-----|

G|-------------------------------------------------------------------------------|
D|-------------------------------------7-5--------------------------------7-5----|
A|-------------------------5-5-5-5-5-5-----7-5--------------------5-5-5-5-----7-5|
E|-5-5-5-5-5-5-3-3-3-3-3-3----------------------5-5-5-5-5-3-3-3-3----------------| (x2)

Verse
G|-------------------------------------------------------------------------|
D|-------------------------------------------------------------------------|
A|-----------------------2-2-2-2-2-2-2-------------------------------------|
E|--------3-3-3-3-3-3-3-----------------0-0-0-0-0-0----0-2-0-3-0-4-0-5-----|

G|-------------------------------------------------------------------------------|
D|-------------------------------------7-5--------------------------------7-5----|
A|-------------------------5-5-5-5-5-5-----7-5--------------------5-5-5-5-----7-5|
E|-5-5-5-5-5-5-3-3-3-3-3-3----------------------5-5-5-5-5-3-3-3-3----------------| (x2)

G|-------------------------------------------------------------------------------|
D|-------------------------------------------------------------------------------|
A|-3-3-3-3-3-3-3-3-3--0-0-0-0-0-0-0-0--------------------------------------------|
E|-------------------------------------------------------------------------------|

Chorus
G|-------------------------------------------------------------------------------|
D|-------------------------------------------------------------------------------|
A|-------------------------------------------------------------------------------|
E|-3-3-3-3--2-2-2-2--0-0-2-0-3-0-4-0-5---3-3-3-3--2-2-2-2--0-0-2-0-3-0-4-0-5-----|

G|-------------------------------------------------------------------------------|
D|-------------------------------------7-5--------------------------------7-5----|
A|-------------------------5-5-5-5-5-5-----7-5--------------------5-5-5-5-----7-5|
E|-5-5-5-5-5-5-3-3-3-3-3-3----------------------5-5-5-5-5-3-3-3-3----------------|

G|-------------------------------------------------------------------------------|
D|-------------------------------------------------------------------------------|
A|-------------------------------------------------------------------------------|
E|-3-3-3-3--2-2-2-2--0-0-2-0-3-0-4-0-5---3-3-3-3--2-2-2-2--0-0-2-0-3-0-4-0-5-----|

G|---------------------------------------------------------------------------|
D|---------------------------------------------------------------------------|
A|-3-3-3-3-3-3-3--2-2-2-2-2-2-2--0-0-0-0-0-0-0-0--5-5-5-5-5-5-5-5-5----------|
E|---------------------------------------------------------------------------|

Bridge
G|---------------------------------------------------------------------------|
D|---------------------------------------------------------------------------|
A|---------------------------------------------------------------------------|
E|---3~~------2~~------0~~----------------3~~---------2~~---------0~~--------|

G|--------------------------------------------------------------------75---------|
D|-----------------------------------------------------------------------75------|
A|-3-3-3-3-3-3-3--2-2-2-2-2-2-2--0-0-0-0-0-0-0-0--5-5-5-5-5-5-5-5-5---------75---|
E|-----------------------------------------------------------------------------75|

Solo
G|-------------------------------------------------------------------------------|
D|-------------------------------------------------------------------------------|
A|-------------------------------------------------------------------------------|
E|-3-3-3-3--2-2-2-2--0-0-2-0-3-0-4-0-5---3-3-3-3--2-2-2-2--0-0-2-0-3-0-4-0-5-----|

G|-------------------------------------------------------------------------------|
D|-------------------------------------------------------------------------------|
A|--3-3-3-3--2-2-2-2--0-0-2-0-3-0-4-0-5---3-3-3-3--2-2-2-2--0-0-2-0-3-0-4-0-5----|
E|-------------------------------------------------------------------------------|

G|-------------------------------------------------------------------------------|
D|-------------------------------------------------------------------------------|
A|-------------------------------------------------------------------------------|
E|-3-3-3-3--2-2-2-2--0-0-2-0-3-0-4-0-5---3-3-3-3--2-2-2-2--0-0-2-0-3-0-4-0-5-----|

G|--------------------------------------------------------------------75---------|
D|-----------------------------------------------------------------------75------|
A|-3-3-3-3-3-3-3--2-2-2-2-2-2-2--0-0-0-0-0-0-0-0--5-5-5-5-5-5-5-5-5---------75---|
E|-----------------------------------------------------------------------------75|

Verse
G|-------------------------------------------------------------------------|
D|-------------------------------------------------------------------------|
A|-----------------------2-2-2-2-2-2-2-------------------------------------|
E|--------3-3-3-3-3-3-3-----------------0-0-0-0-0-0----0-2-0-3-0-4-0-5-----|

G|-------------------------------------------------------------------------------|
D|-------------------------------------7-5--------------------------------7-5----|
A|-------------------------5-5-5-5-5-5-----7-5--------------------5-5-5-5-----7-5|
E|-5-5-5-5-5-5-3-3-3-3-3-3----------------------5-5-5-5-5-3-3-3-3----------------| (x2)

G|-------------------------------------------------------------------------------|
D|-------------------------------------------------------------------------------|
A|-3-3-3-3-3-3-3-3-3--0-0-0-0-0-0-0-0--------------------------------------------|
E|-------------------------------------------------------------------------------|

Bridge
G|---------------------------------------------------------------------------|
D|---------------------------------------------------------------------------|
A|--------------3~-2~-0~---3~-2~-0~------------------------------------------|
E|----3~------------------------------------3~-2~-0~---3~-2~-0~--------------|

G|--------------------------------------------------------------------75---------|
D|-----------------------------------------------------------------------75------|
A|-3-3-3-3-3-3-3--2-2-2-2-2-2-2--0-0-0-0-0-0-0-0--5-5-5-5-5-5-5-5-5---------75---|
E|-----------------------------------------------------------------------------75|

Outro (play until fade-out)
G|-------------------------------------------------------------------------------|
D|-------------------------------------------------------------------------------|
A|-------------------------------------------------------------------------------|
E|-3-3-3-3--2-2-2-2--0-0-2-0-3-0-4-0-5---3-3-3-3--2-2-2-2--0-0-2-0-3-0-4-0-5-----|

G|-------------------------------------------------------------------------------|
D|-------------------------------------------------------------------------------|
A|--3-3-3-3--2-2-2-2--0-0-2-0-3-0-4-0-5---3-3-3-3--2-2-2-2--0-0-2-0-3-0-4-0-5----|
E|-------------------------------------------------------------------------------|

G|-------------------------------------------------------------------------------|
D|-------------------------------------------------------------------------------|
A|-------------------------------------------------------------------------------|
E|-3-3-3-3--2-2-2-2--0-0-2-0-3-0-4-0-5---3-3-3-3--2-2-2-2--0-0-2-0-3-0-4-0-5-----|

G|--------------------------------------------------------------------75---------|
D|-----------------------------------------------------------------------75------|
A|-3-3-3-3-3-3-3--2-2-2-2-2-2-2--0-0-0-0-0-0-0-0--5-5-5-5-5-5-5-5-5---------75---|
E|-----------------------------------------------------------------------------75|

G|-------------------------------------------------------------------------------|
D|-------------------------------------------------------------------------------|
A|-------------------------------------------------------------------------------|
E|-3-3-3-3--2-2-2-2--0-0-2-0-3-0-4-0-5---3-3-3-3--2-2-2-2--0-0-2-0-3-0-4-0-5-----|

G|-------------------------------------------------------------------------------|
D|-------------------------------------7-5--------------------------------7-5----|
A|-------------------------5-5-5-5-5-5-----7-5--------------------5-5-5-5-----7-5|
E|-5-5-5-5-5-5-3-3-3-3-3-3----------------------5-5-5-5-5-3-3-3-3----------------|

G|-------------------------------------------------------------------------------|
D|-------------------------------------------------------------------------------|
A|-------------------------------------------------------------------------------|
E|-3-3-3-3--2-2-2-2--0-0-2-0-3-0-4-0-5---3-3-3-3--2-2-2-2--0-0-2-0-3-0-4-0-5-----|

G|--------------------------------------------------------------------75---------|
D|-----------------------------------------------------------------------75------|
A|-3-3-3-3-3-3-3--2-2-2-2-2-2-2--0-0-0-0-0-0-0-0--5-5-5-5-5-5-5-5-5---------75---|
E|-----------------------------------------------------------------------------75|

And thats all there is too it, awesome Metal song which sounds as great now as it did 
in the 80's. hopefully you guys

like what ive done with it and the layout is straightforward enough to keep in time with 
CD. And thanks again to Greg

Miranda for tabbing the main riff first, as it is spot on in my opinion.

Dont forget to comment dudes.

WASP_God


  [] optional filler
| /  slide up
| \  slide down
| h  hammer-on
| p  pull-off
| ~  vibrato
| +  harmonic
| x  Mute note
===============================================================================
            
Submit corrections

comments powered by Disqus
↑ Back to top | Quiet Riot Bass for Cum On Feel The Noize. Lyrics for acoustic guitar and electric guitar. Tablatures and chords are parodies/interpretations of the original songs. You may use it for private study, scholarship, research or language learning purposes only