>
 >
Rise From The Ashes

Rise From The Ashes Guitar Tabs

Quietdrive - Rise From The Ashes chords, tabs, tablatures, lyrics

Guitar lessons | Add/correct | Request | Top 50 tabs Artists:  A B C D E F G H I J K L M N O P Q R S T U V W X Y Z 0-9

Rise From The Ashes Guitar Tabs – Quietdrive

CD, Sheet music, Poster

Do you like Rise From The Ashes? Share with your friends now
Bass TabsChordsChords v2TabsTabs v2Tabs v3Tabs v4UkuleleUkulele v2
here it is.....

Intro (0:00-0:12)

E-----X-X-X-X-X-X-X-X-X-X-X-X-X-X-X-X-X-X-X-X-X-X-X-X-X-X-X-X-X-X-X-X-X-X-X-X-X-X-X-X-X-X-X---|
B-----10-10-10-10-10-10-10-10-10-10-10-10-10-10-10-10-8-/7-7-7-7-7-7-7-7-7-7-7-7-7-7-7-7-7-7--|
G-----0-0-0-0-0-0-0-0-0-0-0-0-0-0-0-0-0-0-0-0-0-0-0-0-0-0-0-0-0-0-0-0-0-0-0-0-0-0-0-0-0-0-0---|
D---------------------------------------------------------------------------------------------|
A---------------------------------------------------------------------------------------------|
E---------------------------------------------------------------------------------------------|

(Continued)
E-----X-X-X-X-X-X-X-X-X-X-X-X-X-X-X-X-X-X-X-X-X-X-X-X-X-X-X-X-X-X-X-X-X-X-X-X-X-X-X-X-X-X-X-|
B-----7-8/10-10-10-10-10-10-10-10-10-10-10-10-7/5-5-5-5-5-5-5-5-5-5-5-5-5-5-5-5-5-5-5-5-5-5-|
G-----0-0-0-0-0-0-0-0-0-0-0-0-0-0-0-0-0-0-0-0-0-0-0-0-0-0-0-0-0-0-0-0-0-0-0-0-0-0-0-0-0-0-0-|
D-------------------------------------------0-0-0-0-0-0-0-0-0-0-0-0-0-0-0-0-0-0-0-0-0-0-0-0-|
A-----------------------------------------------------0-0-0-0-0-0-0-0-0-0-0-0-0-0-0-0-0-0-0-|
E-----------------------------------------------------------------0-0-0-0-0-0-0-0-0-0-0-0-0-|
                                            (Strumming Pounds Harder)

(Chorus)(0:13-0:36)(1:01-1:24)
                                                                       (second ending 
this part of chorus)
E--------------------------------------------------------------------(----------------------|
B--------------------------------------------------------------------(----------------------|
G--------------------------------------------------------------------(-2-2--2222--2-2-2222--|
D---4-4--4444--4-4--4444------------------------7-7--7777--7-7--7777-(-2-2--2222--2-2-2222--|   (2x)
D---4-4--4444--4-4--4444--5-5--5555--5-5--5555--7-7--5555--7-7--7777-(-0-0--0000--0-0-0000--|
A---2-2--2222--2-2--2222--5-5--5555--5-5--5555--5-5--5555--5-5--5555-(----------------------|
E-------------------------3-3--3333--3-3--3333-----------------------(----------------------|
         ....       ....       ....       ....       ....       ....        ....      ....

(Verse)(0:37-1:00)(1:25-1:47)

E-------------------------------------------------------------------------|
B-------------------------------------------------------------------------|
G----4444444444444444-------------------777777777777777-22222222222222222-|
D----4444444444444444-55555555555555555-777777777777777-22222222222222222-|    (2x)
A----2222222222222222-55555555555555555-555555555555555-00000000000000000-|
E---------------------33333333333333333-----------------------------------|


(Bridge)
E-----------------------------------------------|
B---3333333333333333333333333333333333333333333-|
G---2222222222222222222222222222222222222222222-|
D---2222222222222222222222222222222222222222222-|
A---0000000000000000000000000000000000000000000-|
E-----------------------------------------------|

(Solo)
E---------------------------------------)----------2-2-3-3-2h3-2-2-|
B---7-5-4-0------5-0-7-5-4-0------------)-2h3--2-4-----------------|
G-----------0-5-7------------0-5h7--(3x))--------------------------|
D---------------------------------------)--------------------------|
A---------------------------------------)--------------------------|
E---------------------------------------)--------------------------|


(After Solo)
E-----------------------------------------------|
B-----------------------------------------------|
G--444444444-----------7777777777-22222222222---|
D--444444444-555555555-7777777777-22222222222---|  (2x)
A--222222222-555555555-5555555555-00000000000---|
E------------333333333--------------------------|
   ......... ......... .......... ...........
       (all right here is heavy palm muting)


E--------------------------------------------------------------------------------------------|
B--------------------------------------------------------------------------------------------|
G---------------------------------------------------------------------2-2--2222--2-2-2222----|
D---4-4--4444--4-4--4444------------------------7-7--7777--7-7--7777--2-2--2222--2-2-2222----|   (2x)
D---4-4--4444--4-4--4444--5-5--5555--5-5--5555--7-7--5555--7-7--7777--0-0--0000--0-0-0000----|
A---2-2--2222--2-2--2222--5-5--5555--5-5--5555--5-5--5555--5-5--5555-------------------------|
E-------------------------3-3--3333--3-3--3333-----------------------------------------------|
         ....       ....       ....       ....       ....       ....        ....      ....


E-------------------------------------------------------------------------|
B-------------------------------------------------------------------------|
G----4444444444444444-------------------777777777777777-22222222222222222-|
D----4444444444444444-55555555555555555-777777777777777-22222222222222222-|
A----2222222222222222-55555555555555555-555555555555555-00000000000000000-|
E---------------------33333333333333333-----------------------------------|

(Ending)
E------------------------------------------                E---------------|
B------------------------------------------                B---------------|
G--4444-4444-4444-4444-2222-2222-2222-2222-                G----2~~--------|
D--4444-4444-4444-4444-2222-2222-2222-2222- repeat 1 time  D----2~~--------|
A--2222-2222-2222-2222-0000-0000-0000-0000-      then..... A----0~~--------|
E------------------------------------------                E---------------|
   ....      ....      ....      ....

 (Heavy pounding)





Comments


Popular Quietdrive tabs & chords
Maybe Misery Bass Tabs
Always Chords
Season Chords
The Good Book Chords
Theres A Light On Chords
Time After Time Chords
Time After Time 1 Chords
Do You Know Tabs
Rise From The Ashes (Acoustic) Tabs
Rise From The Ashes 1 Tabs


Song lyrics



↑ Back to top | Tablatures and chords are parodies/interpretations of the original songs. You may use it for private study, scholarship, research or language learning purposes only
© 2014 AZChords.com Contact us | Privacy policy | DMCA | Add/correct tabs | Request tabs | Top 50 tabs