» » »

Rise From The Ashes Bass tabs (ver.1)

Artists:  A B C D E F G H I J K L M N O P Q R S T U V W X Y Z # 

Rise From The Ashes Bass tabs (ver.1)

Quietdrive
Rating:
5/5 (3 votes)

Hard to play? Try these video lessons and learn fast.
                Quietdrive - Rise From The Ashes

Intro
G|--------------------------------------------------------|
D|--------------------------------------------------------|
A|-44-4-4-44-4-4----------------------------22-2-2-22-2-2-|
E|--------------55-5-5-55-5-5-00-0-0-00-0-0---------------|

Verse
G|-----------------------------------------------------------------|
D|-----------------------------------------------------------------|
A|-4444444444444444--------------------------------2222222222222222|
E|-----------------55555555555555550000000000000000----------------|

G|-----------------------------------------------------------------|
D|-----------------------------------------------------------------|
A|-4444444444444777--------------------------------2222222222222222|
E|-----------------55555555555555550000000000000000----------------|

Chorus
G|--------------------------------------------------------|
D|--------------------------------------------------------|
A|-44-4-4-44-4-4----------------------------22-2-2-22-2-2-|
E|--------------55-5-5-55-5-5-00-0-0-00-0-0---------------|

Verse 2
G|------------------------------------------------------------------|
D|------------------------------------------------------------------|
A|-4444444444444444--------------------------------22222222222222/12|
E|-----------------55555555555555550000000000000000-----------------|

G|------------------------------------------------------------------|
D|------------------------------------------------------------------|
A|-44-44-44-44-4--------------------------22-22-22-22-2-------------|
E|--------------55-55-55-55-500-00-00-00-0--------------------------|

Chorus
G|--------------------------------------------------------|
D|--------------------------------------------------------|
A|-44-4-4-44-4-4----------------------------22-2-2-22-2-2-|
E|--------------55-5-5-55-5-5-00-0-0-00-0-0---------------|

G|--------------------------------------------------------|
D|--------------------------------------------------------|
A|-44-4-4-44-4-4----------------------------2~~-----------|
E|--------------55-5-5-55-5-5-00-0-0-00-0-0---------------|
Bridge                                  x2
G|----------------------------------------|
D|----------------------------------------|
A|-/7777777777777777-2222222222222222-----|
E|----------------------------------------|

Verse 3
G|--------------------------------------------------------------------|
D|--------------------------------------------------------------------|
A|-/4444444444444446----------------/7777777777777777\2222222222222222|
E|------------------5555555555555555----------------------------------|

G|--------------------------------------------------------|
D|--------------------------------------------------------|
A|-44-4-4-44-4-4----------------------------22-2-2-22-2-2-|
E|--------------55-5-5-55-5-5-00-0-0-00-0-0---------------|

Ending Chorus
G|--------------------------------------------------------|
D|--------------------------------------------------------|
A|-44-4-4-44-4-4----------------------------22-2-2-22-2-2-|
E|--------------55-5-5-55-5-5-00-0-0-00-0-0---------------|

G|-----------------------------------------------------------------|
D|-----------------------------------------------------------------|
A|-4444444466669999--------------------------------2222222222222222|
E|-----------------55555555999977770000000000002222----------------|

G|---|
D|---|
A|-7-|
E|---|

please rate it!
            
Hard to play? Try these video lessons and learn fast. | Correct




comments powered by Disqus
↑ Back to top | Tablatures and chords are parodies/interpretations of the original songs. You may use it for private study, scholarship, research or language learning purposes only