>
 >
Queen Of The Reich

Queen Of The Reich Guitar Tabs

Queensryche - Queen Of The Reich chords, tabs, tablatures, lyrics

Guitar lessons | Add/correct | Request | Top 50 tabs Artists:  A B C D E F G H I J K L M N O P Q R S T U V W X Y Z 0-9

Queen Of The Reich Guitar Tabs – Queensryche

CD, Sheet music, Poster

Do you like Queen Of The Reich? Share with your friends now
TabsTabs v2Tabs v3Tabs v4


Queen of the Reich
------------------

Queensryche



Order of riffs:
Intro.
Riff 2
Riff 3
Riff 1 (x2)
Riff 3
Riff 1 (x4)
Pre-solo
Solo-riff 1 (guitar 1) x2
Solo riff 2
Riff 2
Riff 3
Riff 1 (x2)
Riff 3
Riff 1 (x7)
End

                      ================================

Intro.
             Play 4x             _______                       ______
Gtr.1                             1,2,4 |                          3 |
-]-----------|--------------------------|----------------------------|
-]-----------|*--8-8-88-7---10-10-88--7-|-----8-8--88-8---10-10-88-7*|
-]--reverse--|-4-7-7-77-7-4--7--7-77--7-|-4---7-7--77-7-4--7--7-77-7-|
-]--cymbal &-|-2----------2-------------|-2-------------2------------|
-]---drum----|*-------------------------|---------------------------*|
-]-----------|--------------------------|----------------------------|
Gtr.2  /base |                          |                            |
-]-----------|--------------------------|----------------------------|
-]---intro---|*-------------------------|---------------------------*|
-]-----------|--------------------------|----------------------------|
-]-----------|-9------------------------|-9-9------------------------|
-]-----------|*7------------------------|-7-7-----------------------*|
-]-----------|-0------------------------|-0-0------------------------|


Riff 1                      End riff 1                  End Intro
Gtr.1                              4x
-]-----------------------------------|--------------------------|
-]*---------------------------------*|--------------------------|
-]-------------------------------s---|-------Play again 4x------|
-]---------4---------4---5--5---7/9--|--------------------------|
-]*--------2---------2---3--3---5/7-*|--------------------------|
-]-0-0-0-0---0-0-0-0---0------0------|--------------------------|
   pm_____|  pm_____|  pm     pm                                |
                                                                |
Gtr.2      1|       2|       3|     4|                          |
-]----------|--------|--------|------|--------------------------|
-]----------|--------|--------|------|--------------------------|
-]--s-------|--------|-----s--|------|------As guitar 1 --------|
-]-9\-------|--------|99999\--|-x\---|--------------------------|
-]-7\-------|--------|77777\--|-x\---|--------------------------|
-]----------|--------|00000---|------|--------------------------|


Riff 2 (play 8x)                                       End riff 2
Both guitars
-]--------------------------------------------------------------|
-]--------------------------------------------------------------|
-]-----------------------------s-s------------------------------|
-]-----4-------4--------7-----7/9\2-----------------------------|
-]-----2-------2--------5-----5/7\0-----------------------------|
-]-0000-0--0000-0--0000---0-------------------------------------|
   pm_| pm____| pm____|   pm


Riff 3                                                    End riff 3
Both guitars
-]------------------------------------------------------------------|
-]------------------------------------------------------------------|
-]------------------------------------------------------------------|
-]-5----5---5---5---5---5---5---5-----7---7---7---7---7---7---7---7-|
-]-3--333-333-333-333-333-333-333---555-555-555-555-555-555-555-555-|
-]------------------------------------------------------------------|
      pm  pm  pm  pm  pm  pm  pm    pm  pm  pm  pm  pm  pm  pm  pm


Pre-solo / solo riff 1                       End riff
Gtr.1
-]-------------------------------------------------|
-]*-----------------------------------------------*|
-]-------------------------------------------------|
-]-9---------7---------5--------2-----4------------|
-]*7---------5---------3--------0-----2----5---4--*|
-]-0---------------------------------------3---2---|
                                                   |
Gtr.2                                              |
-]-------------------------------------------------|
-]*5--5-5\35-8--8-8-78-5--5-5-88------------------*|
-]-4--4-4\24-7--7-7-77-5--5-5-57-------------------|
-]-------------------------------------------------|
-]*-----------------------------------------------*|
-]-------------------------------------------------|


Solo
Gtr.1
-]-------------------------------------------------------------|
-]---10-12-----10-12--12-13--12----13------10-12---12-13-12----|
-]-9-------9-9------------------9-----9--9-------9-------------|
-]-------------------------------------------------------------|
-]-------------------------------------------------------------|
-]-------------------------------------------------------------|
                                                 rake
-]-12----p--p--h-----p--p--h--p--s-h--p-----------|-|----b------b---|
-]-----15-13-12-13-13-12-10-12-10-8-10-8---b------|-15-17-20--17-20-|
-]--------------------------------------9-9-11---14-----------------|
-]------------------------------------------------------------------|
-]------------------------------------------------------------------|
-]------------------------------------------------------------------|

-]----b--r---------------17--19-17-----17----------------------|
-]--17-20-17-15-17--15-------------20-----20-19--20-19-17------|
-]-------------------------------------------------------------|
-]-------------------------------------------------------------|
-]-------------------------------------------------------------|
-]-------------------------------------------------------------|

-]-------------------------------------------------------------|
-]--19-17-----17-----------------------------------------------|
-]--------19-----19-17--19-17-16----b--------------------------|
-]--------------------------------19-21------------------------|
-]-------------------------------------------------------------|
-]-------------------------------------------------------------|
    ______4x________    _______4x_______   ______4x______
   |                |  |                | |              |
-]-----------------------------------------------------------b-----b----|
-]----------10------------------12-------------12-13-12----15-17-15-17--|
-]-10-11-12----12--11--11-12-14----14-12--12-14---------14--------------|
-]----------------------------------------------------------------------|
-]----------------------------------------------------------------------|
-]----------------------------------------------------------------------|

-]---b------b-----b-----b---------------------------------------|
-]-15-17--17-19-17-19-17-19-------------------------------------|
-]-----------------------------12-12-12-11-10--12-12-11-10------|
-]--------------------------------------------------------------|
-]--------------------------------------------------------------|
-]--------------------------------------------------------------|

-]-------------------------------------------------b------------|
-]--------------------10-12-13-12-13-10-12-13-15-15-17----------|
-]-12-12-11-10--11-12-------------------------------------------|
-]--------------------------------------------------------------|
-]--------------------------------------------------------------|
-]--------------------------------------------------------------|

-]---------b-----------------b-----------b------b----------------|
-]----15-15-17-15-12---b---15-17-15-12-15-17--15-17-15-12---b----|
-]-14----------------14-16--------------------------------14-16--|
-]---------------------------------------------------------------|
-]---------------------------------------------------------------|
-]---------------------------------------------------------------|

-]--------------------------------------------------------------|
-]---b----------b-----------------------h-----------------------|
-]-14-16-14-12-9-11------5--7--9--12--11-12---------------------|
-]-------------------------------------------12-----------------|
-]--------------------------------------------------------------|
-]--------------------------------------------------------------|

-]----------------------------------------------------------------|
-]------------------------------------------10--------------------|
-]-12--12-12-12--12-11-9--12-12-11-9--11-12----12-11-9------------|
-]----------------------------------------------------------------|
-]----------------------------------------------------------------|
-]----------------------------------------------------------------|

-]-----------------------------------------_--------------------|
-]-------10--------b-----------------b---15-15------------------|
-]-11-12----12-11-9-11-------9--12-14-16-14-16-14-12-14---------|
-]-----------------------------------------b--r--p--------------|
-]--------------------------------------------------------------|
-]--------------------------------------------------------------|

-]--------------------------------------------------------------|
-]--------------------------------------------------------------|
-]-9--14-12--------12-11--------11-----------14-12-11-----------|
-]----------14-14--------14-12-----14-12-11-----------14--------|
-]----------pm-pm--------pm-pm-----pm_____|-----------pm--------|
-]--------------------------------------------------------------|

-]--------------------------------------------------------------|
-]--------------------------------------------------------------|
-]----------------------h--p-----h--p---------------------------|
-]-12-12-12-12-12-11--11-12-11--9-11-9---s----------------------|
-]-------------------------------------12/14--------------------|
-]--------------------------------------------------------------|

-]------------------------------------------_-------------------|
-]-------------------b------b--r--p-------15-15-----------------|
-]-9-11-12-14-14~--14-16--14-16-14-12-14--14-16-\--W.B.---------|
-]------------------------------------------b----\--------------|
-]------------------------------------------------\-------------|
-]--------------------------------------------------------------|


Solo riff 2
Gtr.2
-]------------------------|
-]------------------------|
-]------------------------|
-]-5--9--5--9--5--9--5--7-|
-]-3--7--3--7--3--7--3--5-|
-]------------------------|


End

-]-------------------------------|
-]-------------------------------|
-]-------------------------------|
-]-----4------4----5----------.--|
-]-----2------2----3-------5--2--|
-]-0000---0000---0---------3--0--|
   pm_|   pm_|   pm

Notation
--------
b bend string
p pull off
h hammer on
~ vibrato hold
W.B. wammy bar
pm palm mute
. staccato
s
\ slide
_ tie
                   =======================================





Comments


Popular Queensryche tabs & chords
Bridge Chords
The Great Divide Chords
Until There Was You Chords
Anarchy X Tabs
I Will Remember Tabs
Resistance Tabs
Speak Tabs
Spreading The Disease 1 Tabs
The Killing Words 1 Tabs
Tribe Tabs


Song lyrics



↑ Back to top | Tablatures and chords are parodies/interpretations of the original songs. You may use it for private study, scholarship, research or language learning purposes only
© 2014 AZChords.com Contact us | Privacy policy | DMCA | Add/correct tabs | Request tabs | Top 50 tabs