>
 >
Queen Of The Reich 1

Queen Of The Reich 1 Guitar Tabs

Queensryche - Queen Of The Reich 1 chords, tabs, tablatures, lyrics

Guitar lessons | Add/correct | Request | Top 50 tabs Artists:  A B C D E F G H I J K L M N O P Q R S T U V W X Y Z 0-9

Queen Of The Reich 1 Guitar Tabs – Queensryche

CD, Sheet music, Poster

Do you like Queen Of The Reich 1? Share with your friends now
TabsTabs v2Tabs v3Tabs v4
Queensryche - Queen of the Reich

One of the greatest debuts ever! It is such an awesome song! The other version wasn’t 

Tablature Legend:
/     - Slide up
\     - Slide down
~     - Vibrato
PM|-| - Palm Mute
x\    - pick slide
\\\   - slower slide
?(?)  - bend(to whatever is in the brackets)
h     - hammer-on
p     - pull-off
t~    - tremolo
d     - divebomb

Intro:
  Gtr I                                  (x2)
e|------------------------------------------|
B|------------------------------------------|
G|------------------------------------------|
D|-9----------------------------------------|
A|-7----------------------------------------|
E|-0----------------------------------------|
 |
 |Gtr II                                 (x2)
e|------------------------------------------|
B|------5-5--8-8--7-----10-10--8-8--10------|
G|------4-4--7-7--7-----7--7---7-7--7-------|
D|------------------------------------------|
A|------------------------------------------|
E|------------------------------------------|

  Gtr I
e|------------------------------------------|
B|------------------------------------------|
G|------------------------------------------|
D|-9-9--------------------------------------|
A|-7-7--------------------------------------|
E|-0-0--------------------------------------|
 |
 |Gtr II
e|------------------------------------------|
B|------5-5--8-8--7-----10-10--8-8--10------|
G|------4-4--7-7--7-----7--7---7-7--7-------|
D|------------------------------------------|
A|------------------------------------------|
E|------------------------------------------|

  Gtr I
e|------------------------------------------|
B|------------------------------------------|
G|------------------------------------------|
D|-9------------------------------------9\--|
A|-7------------------------------------7\--|
E|-0----------------------------------------|
 |
 |Gtr II
e|------------------------------------------|
B|------5-5--8-8--7-----10-10--8-8--10------|
G|------4-4--7-7--7-----7--7---7-7--7-------|
D|------------------------------------------|
A|------------------------------------------|
E|------------------------------------------|

Gtr II                              (x2)
e|-----------------------------------------|
B|-----------------------------------------|
G|-----------------------------------------|
D|---------4---------4-----5--5---7/9------|
A|---------2---------2-----3--3---5/7------|
E|-0-0-0-0---0-0-0-0---0-0------0----------|
PM|-------| |-------| |---|    |-----------|

  Gtr I
e|-------------------------------------|
B|-------------------------------------|
G|-------------------------------------|
D|-9-9-9-9\----------------------------|
A|-7-7-7-7\----------------------------|
E|-0-0-0-0-----------------------------|
 |
 |Gtr II
e|-----------------------------------------|
B|-----------------------------------------|
G|-----------------------------------------|
D|---------4---------4-----5--5---7/9------|
A|---------2---------2-----3--3---5/7------|
E|-0-0-0-0---0-0-0-0---0-0------0----------|
PM|-------| |-------| |---|    |-----------|

  Gtr I
e|-------------------------------------|
B|-------------------------------------|
G|-x\\\\-------------------------------|
D|-x\\\\-------------------------------|
A|-------------------------------------|
E|-------------------------------------|
 |
 |Gtr II
e|-----------------------------------------|
B|-----------------------------------------|
G|-----------------------------------------|
D|---------4---------4-----5--5---7/9------|
A|---------2---------2-----3--3---5/7------|
E|-0-0-0-0---0-0-0-0---0-0------0----------|
PM|-------| |-------| |---|    |-----------|

  Both Gtrs                         (x4)
e|-----------------------------------------|
B|-----------------------------------------|
G|-----------------------------------------|
D|---------4---------4-----5--5---7/9------|
A|---------2---------2-----3--3---5/7------|
E|-0-0-0-0---0-0-0-0---0-0------0----------|
PM|-------| |-------| |---|    |-----------|

Verse I:

  Both Gtrs
e|------------------------------------------|
B|------------------------------------------|
G|------------------------------------------|
D|---------4---------4----9----5--7-7-------|
A|---------2---------2----7----3--5-5-------|
E|-0-0-0-0---0-0-0-0---0-----0--------------|
PM|-------| |-------| |-|   |---------------|

e|------------------------------------------|
B|------------------------------------------|
G|--------------------------------9-9-------|
D|---------4---------4----9----5--7-7-------|
A|---------2---------2----7----3------------|
E|-0-0-0-0---0-0-0-0---0-----0--------------|
PM|-------| |-------| |-|   |---------------|
Repeat the above 3 more times

Chorus I:

Both Gtrs
e|---------------------------------------------------|
B|---------------------------------------------------|
G|---------------------------------------------------|
D|-5------5-----5-----5-----5-----5-----5-----5------|
A|-3--3-3-3-3-3-3-3-3-3-3-3-3-3-3-3-3-3-3-3-3-3------|
E|---------------------------------------------------|
PM   |---| |---| |---| |---| |---| |---| |-----------|

e|---------------------------------------------------|
B|---------------------------------------------------|
G|---------------------------------------------------|
D|-7------7-----7-----7-----7-----7-----7-----7------|
A|-5--5-5-5-5-5-5-5-5-5-5-5-5-5-5-5-5-5-5-5-5-5------|
E|---------------------------------------------------|
PM   |---| |---| |---| |---| |---| |---| |-----------|

                                    (x2)
e|-----------------------------------------|
B|-----------------------------------------|
G|-----------------------------------------|
D|---------4---------4-----5--5---7/9------|
A|---------2---------2-----3--3---5/7------|
E|-0-0-0-0---0-0-0-0---0-0------0----------|
PM|-------| |-------| |---|    |-----------|

e|---------------------------------------------------|
B|---------------------------------------------------|
G|---------------------------------------------------|
D|-5------5-----5-----5-----5-----5-----5-----5------|
A|-3--3-3-3-3-3-3-3-3-3-3-3-3-3-3-3-3-3-3-3-3-3------|
E|---------------------------------------------------|
PM   |---| |---| |---| |---| |---| |---| |-----------|

e|---------------------------------------------------|
B|---------------------------------------------------|
G|---------------------------------------------------|
D|-7------7-----7-----7-----7-----7-----7-----7------|
A|-5--5-5-5-5-5-5-5-5-5-5-5-5-5-5-5-5-5-5-5-5-5------|
E|---------------------------------------------------|
PM   |---| |---| |---| |---| |---| |---| |-----------|

                                    (x4)
e|-----------------------------------------|
B|-----------------------------------------|
G|-----------------------------------------|
D|---------4---------4-----5--5---7/9------|
A|---------2---------2-----3--3---5/7------|
E|-0-0-0-0---0-0-0-0---0-0------0----------|
PM|-------| |-------| |---|    |-----------|

Bridge:

  Gtr I
e|----------------------------------------------------------------------------|
B|----------------------------------------------------------------------------|
G|----------------------------------------------------------------------------|
D|-9-----------------7-----------------5----------------2----4----------------|
A|-7-----------------5-----------------3----------------0----2-----5----4-----|
E|-0---------------------------------------------------------------3----2-----|
 |
 |Gtr II
e|----------------------------------------------------------------------------|
B|------5-5--8-8--7-----10-10--8-8--10-----5-5--8-8--7-----10-10--8-8--10-----|
G|------4-4--7-7--7-----7--7---7-7--7------4-4--7-7--7-----7--7---7-7--7------|
D|----------------------------------------------------------------------------|
A|----------------------------------------------------------------------------|
E|----------------------------------------------------------------------------|
Repeat the above once

Solo I:

  Gtr I
e|---------------------------------------------|-12-12-11-9----------------------|
B|-----------------10--------------------------|------------12-11-9--------------|
G|-9-11-12-11-9-11----11-9-11-12-11-9-11-------|--------------------12-11-9------|
D|---------------------------------------12~---|----------------------------12~--|
A|---------------------------------------------|---------------------------------|
E|---------------------------------------------|---------------------------------|
 |
 |Gtr II
e|---------------------------------------------|-12-12-11-9----------------------|
B|---10-12-10-----10-12-13-12-10---10-12-10----|------------12-11-9--------------|
G|-9----------9-9----------------9----------9~-|--------------------12-11-9------|
D|---------------------------------------------|----------------------------12~--|
A|---------------------------------------------|---------------------------------|
E|---------------------------------------------|---------------------------------|

  Gtr I & Gtr II
e|-----------------------------------|-15-17-15-14-15-14-12-14-12-11-12-11-9------------|
B|----15-17(19)(19)(19)-17p15-17-15~-|---------------------------------------10-9-7-----|
G|-14--------------------------------|----------------------------------------------11~-|
D|-----------------------------------|--------------------------------------------------|
A|-----------------------------------|--------------------------------------------------|
E|-----------------------------------|--------------------------------------------------|

e|-------------------------------------|----------------------------------------|
B|-5-7-7-8-7-5-5-7-7-8-7-5-5-7-7-8-7-5-|-7-8-8-10-8-7-7-8-8-10-8-7-7-8-8-10-8-7-|
G|-------------------------------------|----------------------------------------|
D|-------------------------------------|----------------------------------------|
A|-------------------------------------|----------------------------------------|
E|-------------------------------------|----------------------------------------|

e|-------------------------------------------------|------------------------------------|
B|-8-10-10-12-10-8-8-10-10-12-10-8-8-10-10-12-10-8-|-/12-15-15(17)(17)-17(19)(19)(19)-\-|
G|-------------------------------------------------|------------------------------------|
D|-------------------------------------------------|------------------------------------|
A|-------------------------------------------------|------------------------------------|
E|-------------------------------------------------|------------------------------------|

  Gtr I
e|-------------------------------------|
B|-------------------------------------|
G|-----------------------4-4h5h7-7(9)--|
D|-5p4-5-5p4-5-5p4-5-5p4---------------|
A|-------------------------------------|
E|-------------------------------------|

e|------------------------------------------------------------|-------------------------|
B|-12h14-15-15(17)-15-15(17)-15-15(17)-15-15(17)-12-----------|-------------------------|
G|--------------------------------------------------14-12~-\--|-------------------------|
D|------------------------------------------------------------|-------------------------|
A|------------------------------------------------------------|-3~--5~--7~--9(10)—9--5\-|
E|------------------------------------------------------------|-------------------------|

e|-----------------------------------5-------------|-----------------------------|
B|-8-8-8p7p5-8p7p5-8p7p5-8p7p5-8p7p5---8p7p5-------|--------15(15)---------------|
G|-------------------------------------------7-5~--|-----12-14(16)-14-12-14-12\--|
D|-------------------------------------------------|-14~-------------------------|
A|-------------------------------------------------|-----------------------------|
E|-------------------------------------------------|-----------------------------|

e|---5-3-2---------------------------------------|-----------------------------|
B|-5-------5-3-2-------------3-3-3-2-------------|-----------------------------|
G|---------------5-3-2---------------5-3-2-------|-----------------------------|
D|---------------------5-3-2---------------5-3~--|-----------------------------|
A|-----------------------------------------------|-7~--9~--10~--12~~-t~-t~-t~--|
E|-----------------------------------------------|-----------------------------|

e|-----------------------------------------|
B|------------------------15(15)~~~--d-----|
G|-12-14(16)-14p12-14(16)-14(16)~~~--d-----|
D|-----------------------------------------|
A|-----------------------------------------|
E|-----------------------------------------|

Solo Rhythm:
                                                                           (x2)
e|----------------------------------------------------------------------------|
B|----------------------------------------------------------------------------|
G|----------------------------------------------------------------------------|
D|-9-----------------7-----------------5----------------2----4----------------|
A|-7-----------------5-----------------3----------------0----2-----5----4-----|
E|-0---------------------------------------------------------------3----2-----|

e|---------------------------------------------------|
B|---------------------------------------------------|
G|---------------------------------------------------|
D|-5------5-----5-----5-----5-----5-----5-----5------|
A|-3--3-3-3-3-3-3-3-3-3-3-3-3-3-3-3-3-3-3-3-3-3------|
E|---------------------------------------------------|
PM   |---| |---| |---| |---| |---| |---| |-----------|

e|------------------------------------------|
B|------------------------------------------|
G|------------------------------------------|
D|---------4---------4----9----5--7-7-------|
A|---------2---------2----7----3--5-5-------|
E|-0-0-0-0---0-0-0-0---0-----0--------------|
PM|-------| |-------| |-|   |---------------|

e|---------------------------------------------------|
B|---------------------------------------------------|
G|---------------------------------------------------|
D|-5------5-----5-----5-----5-----5-----5-----5------|
A|-3--3-3-3-3-3-3-3-3-3-3-3-3-3-3-3-3-3-3-3-3-3------|
E|---------------------------------------------------|
PM   |---| |---| |---| |---| |---| |---| |-----------|

e|------------------------------------------|
B|------------------------------------------|
G|--------------------------------9-9-------|
D|---------4---------4----9----5--7-7-------|
A|---------2---------2----7----3------------|
E|-0-0-0-0---0-0-0-0---0-----0--------------|
PM|-------| |-------| |-|   |---------------|

e|---------------------------------------------------|
B|---------------------------------------------------|
G|---------------------------------------------------|
D|-5------5-----5-----5-----5-----5-----5-----5------|
A|-3--3-3-3-3-3-3-3-3-3-3-3-3-3-3-3-3-3-3-3-3-3------|
E|---------------------------------------------------|
PM   |---| |---| |---| |---| |---| |---| |-----------|

e|------------------------------------------|
B|------------------------------------------|
G|------------------------------------------|
D|---------4---------4----9----5--7-7-------|
A|---------2---------2----7----3--5-5-------|
E|-0-0-0-0---0-0-0-0---0-----0--------------|
PM|-------| |-------| |-|   |---------------|

e|---------------------------------------------------|
B|---------------------------------------------------|
G|---------------------------------------------------|
D|-5------5-----5-----5-----5-----5-----5-----5------|
A|-3--3-3-3-3-3-3-3-3-3-3-3-3-3-3-3-3-3-3-3-3-3------|
E|---------------------------------------------------|
PM   |---| |---| |---| |---| |---| |---| |-----------|

e|---------------------------------------------------|
B|---------------------------------------------------|
G|---------------------------------------------------|
D|-7------7-----7-----7-----7-----7-----7-----7------|
A|-5--5-5-5-5-5-5-5-5-5-5-5-5-5-5-5-5-5-5-5-5-5------|
E|---------------------------------------------------|
PM   |---| |---| |---| |---| |---| |---| |-----------|
End Solo

Verse II:

  Both Gtrs
e|------------------------------------------|
B|------------------------------------------|
G|------------------------------------------|
D|---------4---------4----9----5--7-7-------|
A|---------2---------2----7----3--5-5-------|
E|-0-0-0-0---0-0-0-0---0-----0--------------|
PM|-------| |-------| |-|   |---------------|

e|------------------------------------------|
B|------------------------------------------|
G|--------------------------------9-9-------|
D|---------4---------4----9----5--7-7-------|
A|---------2---------2----7----3------------|
E|-0-0-0-0---0-0-0-0---0-----0--------------|
PM|-------| |-------| |-|   |---------------|
Repeat the above 3 more times

Chorus II:

Both Gtrs
e|---------------------------------------------------|
B|---------------------------------------------------|
G|---------------------------------------------------|
D|-5------5-----5-----5-----5-----5-----5-----5------|
A|-3--3-3-3-3-3-3-3-3-3-3-3-3-3-3-3-3-3-3-3-3-3------|
E|---------------------------------------------------|
PM   |---| |---| |---| |---| |---| |---| |-----------|

e|---------------------------------------------------|
B|---------------------------------------------------|
G|---------------------------------------------------|
D|-7------7-----7-----7-----7-----7-----7-----7------|
A|-5--5-5-5-5-5-5-5-5-5-5-5-5-5-5-5-5-5-5-5-5-5------|
E|---------------------------------------------------|
PM   |---| |---| |---| |---| |---| |---| |-----------|

                                    (x2)
e|-----------------------------------------|
B|-----------------------------------------|
G|-----------------------------------------|
D|---------4---------4-----5--5---7/9------|
A|---------2---------2-----3--3---5/7------|
E|-0-0-0-0---0-0-0-0---0-0------0----------|
PM|-------| |-------| |---|    |-----------|

e|---------------------------------------------------|
B|---------------------------------------------------|
G|---------------------------------------------------|
D|-5------5-----5-----5-----5-----5-----5-----5------|
A|-3--3-3-3-3-3-3-3-3-3-3-3-3-3-3-3-3-3-3-3-3-3------|
E|---------------------------------------------------|
PM   |---| |---| |---| |---| |---| |---| |-----------|

e|---------------------------------------------------|
B|---------------------------------------------------|
G|---------------------------------------------------|
D|-7------7-----7-----7-----7-----7-----7-----7------|
A|-5--5-5-5-5-5-5-5-5-5-5-5-5-5-5-5-5-5-5-5-5-5------|
E|---------------------------------------------------|
PM   |---| |---| |---| |---| |---| |---| |-----------|

                                    (x7)
e|-----------------------------------------|
B|-----------------------------------------|
G|-----------------------------------------|
D|---------4---------4-----5--5---7/9------|
A|---------2---------2-----3--3---5/7------|
E|-0-0-0-0---0-0-0-0---0-0------0----------|
PM|-------| |-------| |---|    |-----------|

e|------------------------------------------|
B|------------------------------------------|
G|------------------------------------------|
D|---------4---------4-----5----------------|
A|---------2---------2-----3-------5-2------|
E|-0-0-0-0---0-0-0-0---0-0---------3-0------|
PM|-------| |-------| |---------------------|

Enjoy!





Comments


Popular Queensryche tabs & chords
The Mission Bass Tabs
Bridge Chords
Another Rainy Night 1 Tabs
Empire 1 Tabs
I Will Remember 1 Tabs
One More Time Around Tabs
Queen Of The Reich 2 Tabs
Resistance Tabs
Silent Lucidity 3 Tabs
Speak 1 Tabs


Song lyrics



↑ Back to top | Tablatures and chords are parodies/interpretations of the original songs. You may use it for private study, scholarship, research or language learning purposes only
© 2014 AZChords.com Contact us | Privacy policy | DMCA | Add/correct tabs | Request tabs | Top 50 tabs