» » »

Bronze Tabs (ver.1)

Artists:  A B C D E F G H I J K L M N O P Q R S T U V W X Y Z # 

Bronze Tabs (ver.1)

Queens Of The Stone Age
Rating:
0/5 (0 votes)

Tabs too difficult? Try these video lessons and learn fast.
                Band: Queens of The Stone Age
Tuning: E standard

-------------------------------------------------------------
INTRO: (Part I)
-------------------------------------------------------------
Gtr I
  D
|---------------------|----------------------------|
|---------------------|----------------------------|
|-----------7--(7)----|--(7)---7-------------------|
|--------8------------|-----------8----------------|
|-----8---------------|--------------8-------------|
|--6------------------|-----------------6----------|

  C#
|----------------------------|------------------------------|
|----------------------------|------------------------------|
|-----------6--(6)----6b7----|--(6)--(6)r(6)-----4h6/7/9----|
|--------7-------------------|------------------------------|
|-----7----------------------|------------------------------|
|--5-------------------------|------------------------------|

  D
|---------------------|------------------------|
|---------------------|------------------------|
|-----------7--(7)----|--(7)-------7---9b(11)r-|
|--------8------------|------------------------|
|-----8---------------|------------------------|
|--6------------------|---------6--------------|

  C#
|----------------------------|--------------------------||
|----------------------------|--------------------------||
|-----------6--(6)----6b7----|--(6)---(6)r=-(6)--(6)----||
|--------7-------------------|--------------------------||
|-----7----------------------|--------------------------||
|--5-------------------------|--------------------------||



-------------------------------------------------------------
INTRO: (Part II)
-------------------------------------------------------------

	(model I)
| Guitar I: (Rhythm)
|--------6--------------6-|--(6)------6--(6)--------------|
|--------6--------------6-|--(6)--6---6--(6)--------------|
|---7----7---7--7---7---7-|--(7)--7---7--(7)---7--7--7--7-|
|---8----8---8--8---8---8-|--(8)--8---8--(8)---8--8--8--8-|
|---8--------8--8---8-----|-------8------------8--8--8--8-|
|---6--------6--6---6-----|-------6------------6--6--6--6-|
|
| Guitar II: (Lead) 
|-------------------------|-------------------------------|
|-------------------------|-------------------------------|
|-/12-------------(12)s=3-|--(3)--------------------------|
|-------------------------|-------------------------------|
|-------------------------|-------------------------------|
|-------------------------|-------------------------------|


	(model II)
| Guitar I: (Rhythm)
|--------5--------------5-|--(5)------9--(5)--------------|
|--------5--------------5-|--(5)------9--(5)--------------|
|---6----6---6--6---6---6-|--(6)--6---6--(6)--6--6--6--6--|
|---7----7---7--7---7-----|-------7---7--(7)--7--7--7--7--|
|---7--------7--7---7-----|-------7-----------7--7--7--7--|
|---5--------5--5---5-----|-------5-----------5--5--5--5--|
|
| Guitar II: (Lead)
|-------------------------|-------------------------------|
|-------------------------|-------------------------------|
|-/12-------------(12)s=2-|--(2)--------------------------|
|-------------------------|-------------------------------|
|-------------------------|-------------------------------|
|-------------------------|-------------------------------|

All This i Repeated, so you play it Twice like this:
 	
Model I
Model II
Model I
Model II

Guitar I keeps playing the Main Riff:

Main Riff:
(Listen to the song to get the Pattern right)

| Guitar I: (Rhythm)
|--------6--------------6-|--(6)------6--(6)--------------|
|--------6--------------6-|--(6)--6---6--(6)--------------|
|---7----7---7--7---7---7-|--(7)--7---7--(7)---7--7--7--7-|
|---8----8---8--8---8---8-|--(8)--8---8--(8)---8--8--8--8-|
|---8--------8--8---8-----|-------8------------8--8--8--8-|
|---6--------6--6---6-----|-------6------------6--6--6--6-|

|--------5--------------5-|--(5)------9--(5)--------------|
|--------5--------------5-|--(5)------9--(5)--------------|
|---6----6---6--6---6---6-|--(6)--6---6--(6)--6--6--6--6--|
|---7----7---7--7---7-----|-------7---7--(7)--7--7--7--7--|
|---7--------7--7---7-----|-------7-----------7--7--7--7--|
|---5--------5--5---5-----|-------5-----------5--5--5--5--|

Meanwhile guitar II (Lead) Plays this:
(listen to the song to get it right, it is not that hard :D )

| Guitar II: (Lead)
|-----------------------------|----------------------------|
|-----------------------------|----------------------------|
|---7--------7--(7)-----7-----|--(7)--7---------7//9-9\\6--|
|-----------------------------|----------------------------|
|-----------------------------|----------------------------|
|-----------------------------|----------------------------|

|--------------------------------|--------------------------------------|
|--------------------------------|--------------------------------------|
|---6-------6--(6)------6---6b7--|--(6)--7br--=LET RING=--------6--7----|
|-------------------9------------|---------------------------9----------|
|--------------------------------|--------------------------------------|
|--------------------------------|--------------------------------------|

|-----------------------------|---------------------------|
|-----------------------------|---------------------------|
|---7-------7--(7)------7-----|--(7)--7--------7//9--9----|
|-----------------------------|---------------------------|
|-----------------------------|---------------------------|
|-----------------------------|---------------------------|

|--------------------------------|---------------------------------------------||
|--------------------------------|---------------------------------------------||
|---6-------6--(6)------6---6/9--|--(9)--9b(10)r(9)---=LET RING=-------(9)\----||
|-------------------9------------|---------------------------------------------||
|--------------------------------|---------------------------------------------||
|--------------------------------|---------------------------------------------||



-------------------------------------------------------------
VERSE I
-------------------------------------------------------------

| Guitar I: (Rhythm)
|--------6--------------6-|--(6)------6--(6)--------------|
|--------6--------------6-|--(6)--6---6--(6)--------------|
|---7----7---7--7---7---7-|--(7)--7---7--(7)---7--7--7--7-|
|---8----8---8--8---8---8-|--(8)--8---8--(8)---8--8--8--8-|
|---8--------8--8---8-----|-------8------------8--8--8--8-|
|---6--------6--6---6-----|-------6------------6--6--6--6-|

|--------5--------------5-|--(5)------9--(5)--------------|
|--------5--------------5-|--(5)------9--(5)--------------|
|---6----6---6--6---6---6-|--(6)--6---6--(6)--6--6--6--6--|
|---7----7---7--7---7-----|-------7---7--(7)--7--7--7--7--|
|---7--------7--7---7-----|-------7-----------7--7--7--7--|
|---5--------5--5---5-----|-------5-----------5--5--5--5--|

| Guitar II: (Lead) ***
|-------------------------|-------------------------------|
|-------------------------|-------------------------------|
|-------------------------|-------------------------------|
|-------------------------|-------------------------------|
|---8----8---8--8---8-----|---8---8---8---8----8--8--8--8-|
|---6----6---6--6---6-----|---6---6---6---6----6--6--6--6-|

|-------------------------|-------------------------------|
|-------------------------|-------------------------------|
|-------------------------|-------------------------------|
|-------------------------|-------------------------------|
|---7----7---7--7---7-----|---7---7---7---7---7--7--7--7--|
|---5----5---5--5---5-----|---5---5---5---5---5--5--5--5--|

I don’t know how many times you’ll play this but count it youself ‘cause i’m to lazy right now.

******************************READ*IT*GOD*DAMN*IT***************************************
In the Verse, i’m not that sure about Guitar II. Actually i think that it is the bass
that keeps the low end in the verse but if you haven’t got a bass player you can just 
do it like this. ( i think :P )
you just have to switch from Treble to Bass on you guitar to give it a deeper sound.
****************************************************************************************



-------------------------------------------------------------
SOLO: (Part I)
-------------------------------------------------------------

Now the fun Begins :D

Now you just jump Directly from the verse to the solo.

Guitar I Still plays the usual:

| Guitar I: (Rhythm)
|--------6--------------6-|--(6)------6--(6)--------------|
|--------6--------------6-|--(6)--6---6--(6)--------------|
|---7----7---7--7---7---7-|--(7)--7---7--(7)---7--7--7--7-|
|---8----8---8--8---8---8-|--(8)--8---8--(8)---8--8--8--8-|
|---8--------8--8---8-----|-------8------------8--8--8--8-|
|---6--------6--6---6-----|-------6------------6--6--6--6-|

|--------5--------------5-|--(5)------9--(5)--------------|
|--------5--------------5-|--(5)------9--(5)--------------|
|---6----6---6--6---6---6-|--(6)--6---6--(6)--6--6--6--6--|
|---7----7---7--7---7-----|-------7---7--(7)--7--7--7--7--|
|---7--------7--7---7-----|-------7-----------7--7--7--7--|
|---5--------5--5---5-----|-------5-----------5--5--5--5--|



| Guitar II: (Lead)
|-------------------------|-----------------------------|
|-------------------------|-----------------------------|
|--7//9--9/10-10\\9-9/12--|--12\\10-10\\9--9\\7--7\\14--|
|-------------------------|-----------------------------|
|-------------------------|-----------------------------|
|-------------------------|-----------------------------|

|-------------------------|-------------------------------------|
|-------------------------|-------------------------------------|
|-14\12-12\10-10\9--9--9--|-(9)-9b(10)r(9)------(9)--9--9\\7----|
|-------------------------|-------------------------------------|
|-------------------------|-------------------------------------|
|-------------------------|-------------------------------------|

|--------------------------|----------------------------|
|--------------------------|----------------------------|
|--7-------7--(7)-----7----|--(7)--7--------7//9--9\\6--|
|--------------------------|----------------------------|
|--------------------------|----------------------------|
|--------------------------|----------------------------|

|--------------------------|----------------------------|
|--------------------------|----------------------------|
|--6-------6--(6)-----6--6-|--(6)---------(6)/9--9--9---|
|------------------9-------|----------------------------|
|--------------------------|----------------------------|
|--------------------------|----------------------------|

|----------------------------|-----------------------------|
|----------------------------|-----------------------------|
|-9b(10)-----9--(9)-----7----|--(7)-7b(9)rp5---5---7//9--9-|
|----------------------------|---------------7-------------|
|----------------------------|-----------------------------|
|----------------------------|-----------------------------|

|-------------------------------|----------------------------------|
|-------------------------------|-------------------------------10-|
|-9b(10)-----9--(9)--7--9--9/12-|-(12)-12b(13)r(12)--(12)-10-12----|
|-------------------------------|----------------------------------|
|-------------------------------|----------------------------------|
|-------------------------------|----------------------------------|

|---------------------------------|--------------------------------------|
|-(10)-10-13p10----10-13p10----10-|--13p10----10-13p10------10-13p10-----|
|---------------12----------12----|--------12-----------12-----------12--|
|---------------------------------|--------------------------------------|
|---------------------------------|--------------------------------------|
|---------------------------------|--------------------------------------|

|-------------------------------------|------------------------------------------||
|-13p10----13p10----13p10----13p10----|--13p=10----13p10-----13p=10-----10\------||
|-------12-------12-------12-------12-|---------12-------12----------------------||
|-------------------------------------|------------------------------------------||
|-------------------------------------|------------------------------------------||
|-------------------------------------|------------------------------------------||



-------------------------------------------------------------
INTERLUDE:
-------------------------------------------------------------

| Guitar I + II
|-------------------------|-------------------------|
|-------------------------|-------------------------|
|-------------------------|--------------5--5--5--5-|
|-------------------------|--------6--6--6--6--6--6-|
|--6--6--6--6--6--6--6--6-|--6--6--6--6--6--6--6--6-|
|--4--4--4--4--4--4--4--4-|--4--4--4--4--4--4--4--4-|
 PM==================================PM

|-------------------------|--------------4--4--4--4-|
|--4--4--4--4--4--4--4--4-|--4--4--4--4--4--4--4--4-|
|--5--5--5--5--5--5--5--5-|--5--5--5--5--5--5--5--5-|
|--6--6--6--6--6--6--6--6-|--6--6--6--6--6--6--6--6-|
|--6--6--6--6--6--6--6--6-|--6--6--6--6--6--6--6--6-|
|--4--4--4--4--4--4--4--4-|--4--4--4--4--4--4--4--4-|



-------------------------------------------------------------
SOLO: (Part II)
-------------------------------------------------------------

Guitar I, Still plays the usual:

| Guitar I: (Rhythm)
|--------6--------------6-|--(6)------6--(6)--------------|
|--------6--------------6-|--(6)--6---6--(6)--------------|
|---7----7---7--7---7---7-|--(7)--7---7--(7)---7--7--7--7-|
|---8----8---8--8---8---8-|--(8)--8---8--(8)---8--8--8--8-|
|---8--------8--8---8-----|-------8------------8--8--8--8-|
|---6--------6--6---6-----|-------6------------6--6--6--6-|

|--------5--------------5-|--(5)------9--(5)--------------|
|--------5--------------5-|--(5)------9--(5)--------------|
|---6----6---6--6---6---6-|--(6)--6---6--(6)--6--6--6--6--|
|---7----7---7--7---7-----|-------7---7--(7)--7--7--7--7--|
|---7--------7--7---7-----|-------7-----------7--7--7--7--|
|---5--------5--5---5-----|-------5-----------5--5--5--5--|



|Guitar II (Lead)
|---------------------------|---------------------------|
|---------------------------|---------------------------|
|---------------------------|---------------------------|
|--------------0----------2-|--(2)--0--------2------0-2-|
|---------0--1----1---1-----|----------1---------1------|
|---1--3--------------------|---------------------------|

|---------------------------|--------------------------------|
|---------------------------|--------------------------------|
|-----------------2---2-----|--------------------------------|
|---3--2--0-0--0----------2-|--(2)---------(2)--0--2--2b(3)--|
|---------------------------|--------------------------------|
|---------------------------|--------------------------------|

|----------------------------|---------------------------|
|----------------------------|---------------------------|
|-------------0------0---2p0-|-------0-2--3---3---2--3-2-|
|---2----0-2-----2-----------|---2-----------------------|
|----------------------------|---------------------------|
|----------------------------|---------------------------|

|--------------------------------|----------------------3---|
|---1--3--1-3b(5)rp1-----1-3b(5)r|==(3)------1---3--------1-|
|--------------------------------|-------------------2------|
|--------------------------------|--------------------------|
|--------------------------------|--------------------------|
|--------------------------------|--------------------------|

|--------------3------------|----------------3-----------|
|---1--3----1---------3---1-|-------3----3----------1--3-|
|---------2-------2---------|---2----------------2-------|
|---------------------------|---------1------------------|
|---------------------------|----------------------------|
|---------------------------|----------------------------|

|---------------------------|----------------3-------------|
|------0--1-0-----1------/3-|---1---3----1-------1-----3///|
|---2----------0------------|---------2-------------2------|
|---------------------------|------------------------------|
|---------------------------|------------------------------|
|---------------------------|------------------------------|

|-----------------------------|----------------------------|
|///5--3--5p3----3--5//8---5--|---8-----5------8-----------|
|-----------------------------|-------7----7-------7-------|
|-----------------------------|-----------------------5--7-|
|-----------------------------|----------------------------|
|-----------------------------|----------------------------|

|         |---3---|	                   TP  TP                    ||
|------------------------------5-|--8b(9)--5/--8/--------------------||
|-------------------8--5---8-----|---------x---x-------------(0)-----||
|---8------7--7--7---------------|---------x---x-------------(0)-----||
|-------7------------------------|---------------------------(0)-----||
|--------------------------------|-----------------------------------||
|--------------------------------|-----------------------------------||



-------------------------------------------------------------
Verse II 
-------------------------------------------------------------

	(JUST LIKE VERSE I )

-------------------------------------------------------------
INTERLUDE:
-------------------------------------------------------------

	(JUST AS LAST TIME)

-------------------------------------------------------------
ENDING CHORUS:
-------------------------------------------------------------

| Guitar I + II
|-----------5--(5)-------------|-----------7--(7)-------------|
|-----------5--(5)-------------|-----------7--(7)-------------|
|--6--6--6--7--(7)--6--6--8--8-|--8--8--8--9--(9)--8--8--7--7-|
|--7--7--7--7--(7)--7--7--9--9-|--9--9--9--9--(9)--9--9--8--8-|
|--7--7--7--5--(5)--7--7--9--9-|--9--9--9--7--(7)--9--9--8--8-|
|--5--5--5----------5--5--7--7-|--7--7--7----------7--7--6--6-|

The 4 Fills Guitar II Plays

| Guitar II (Lead)
|--------------------------------------------|
|------------10-8b(10)r(8)----------8b10r===-|
|--7b(8)r(7)---------------------------------|
|--------------------------------------------|
|--------------------------------------------|
|--------------------------------------------|

|------------------------------------|
|--8b(10)r---------------------------|
|-----------7b(8)r(7)--(7)-----------|
|------------------------------------|
|------------------------------------|
|------------------------------------|

|------------------------------|
|--5-8--5-8--5-8--5-x-5--------|
|-------------------------3----|
|------------------------------|
|------------------------------|
|------------------------------|

|--------8------------------||
|--8-10----10~(10)~~~-------||
|---------------------------||
|---------------------------||
|---------------------------||
|---------------------------||

Ends like this:
| Guitar I + II
||---6------6------||--5\----------*|
||o--6------6-----o||--5\----------*|
||---7------7------||--6\----------*|
||---8------8------||--7\----------*|
||o--8------8-----o||--7\----------*|
||---6------6------||--5\----------*|


I'm Pretty sure this tab i right...

RATE IT DAMN YOU. ;D
            
Tabs too difficult? Try these video lessons and learn fast.




comments powered by Disqus
↑ Back to top | Tablatures and chords are parodies/interpretations of the original songs. You may use it for private study, scholarship, research or language learning purposes only