» » »

Queens Of The Stone Age, Run Pig Run Tabs (ver.1)

Artists:  A B C D E F G H I J K L M N O P Q R S T U V W X Y Z # 

Run Pig Run Tabs (ver.1)

Queens Of The Stone Age Tabs
 Rating:
4/5 (4 votes)
Run Pig Run lessons Tabs too difficult? Try these video lessons and learn fast
                RUN PIG RUN-QUEENS OF THE STONE AGE-ERA VULGARIS
Standard tuning

Note:  *=play strings before nut   h=hammer on   p=pull off   x=mute strings

Another song by QOTSA that can be played in standard tuning

Intro:

e|-------------------------*---------------------------------------------|
B|-------------------------*---------------------------------------------|
G|-------------------------*---------------------------------------------|
D|-------------------------*---------------------------------------------|
A|-5-------9--------6------*---------------------------------------------|
E|-------------------------*---------------------------------------------|x2

Verses:

e|-------------------------------------------------------------------------|
B|-------------------------------------------------------------------------|
G|-7-7-7-7-7-7-7-7-7-7-7-7-7-----------------------------------------------|
D|-7-7-7-7-7-7-7-7-7-7-7-7-7-----------9-9-9-9-9-9-9-9-9-9-9-9-9-----------|
A|-5-5-5-5-5-5-5-5-5-5-5-5-5-----------9-9-9-9-9-9-9-9-9-9-9-9-9-----------|
E|-------------------------------------7-7-7-7-7-7-7-7-7-7-7-7-7-----------|

e|-------------------------------------------------------------------------|
B|-------------------------------------------------------------------------|
G|-------------------------------------------------------------------------|
D|-6-6-6-6-6-6-6-6-6-6-6-6-6-----------6-6-6-6-6-6-6-6-6-6-6-6-6-----------|
A|-6-6-6-6-6-6-6-6-6-6-6-6-6-----------6-6-6-6-6-6-6-6-6-6-6-6-6-----------|
E|-4-4-4-4-4-4-4-4-4-4-4-4-4-----------4-4-4-4-4-4-4-4-4-4-4-4-4-----------|

Chorus:

e|-------------------------------------------------------------------------|
B|-------------------------------------------------------------------------|
G|-------------------------------------------------------------------------|
D|---6---5p3p0---------------------6---5p3p0-------------------------------|
A|-5-----------3p0----------3----5-----------3p0----------3----------------|
E|-------------------3--1--------------------------3--1--------------------|

e|-------------------------------------------------------------------------|
B|-------------------------------------------------------------------------|
G|--------------------------------------7p5--------------------------------|
D|---6---5p3p0----------------------6--------7p5---------------------------|
A|-5-----------3p0---------3------5---------------8p5----3h5---------------|
E|-------------------3--1--------------------------------------------------|

Play verse riff again, then play:

e|-----------------------------------------------------------------------|
B|--------8-7-8-7-5-7-5-------5-4-5-4---4---4----------------------------|
G|---6------------------------------------6---6--------------------------|
D|---6-------------------------------------------------------------------|
A|---4-------------------------------------------------------------------|
E|-----------------------------------------------------------------------|x4

Then use the above riffs until the end of the song

Thats about it

ENJOY!
            
Submit corrections

comments powered by Disqus
↑ Back to top | Queens Of The Stone Age Tabs for Run Pig Run. Lyrics for acoustic guitar and electric guitar. Tablatures and chords are parodies/interpretations of the original songs. You may use it for private study, scholarship, research or language learning purposes only