>
 >
Regular Johnstandard Tuning

Regular Johnstandard Tuning Guitar Tabs

Queens Of The Stone Age - Regular Johnstandard Tuning chords, tabs, tablatures, lyrics

Guitar lessons | Add/correct | Request | Top 50 tabs Artists:  A B C D E F G H I J K L M N O P Q R S T U V W X Y Z 0-9

Regular Johnstandard Tuning Guitar Tabs – Queens Of The Stone Age

CD, Sheet music, Poster

Do you like Regular Johnstandard Tuning? Share with your friends now
Tabs
Regular John (standard tuning) 

Tuning - E A D G B E

INTRO

Guitar 1 (rhythm)

0:01
E |-----------------|
B |-----------------|
G |-----------------|
D |-1010101010101010|
A |-1010101010101010|
E |-8-8-8-8-8-8-8-8-| (TEN NOT ONE NOUGHT)

Guitar 2 (lead)

0:03
E |-------------------------|
B |-11~---------------15~---|
G |-------8~----14~---------|
D |-------------------------|
A |-------------------------|
E |-------------------------| (X4)

BOTH GUITARS

0:17
E |-----------------|
B |-----------------|
G |-----------------|
D |-1010101010101010|
A |-1010101010101010|
E |-8-8-8-8-8-8-8-8-| (TEN NOT ONE NOUGHT)

0:30
E |-----------------------------------------|
B |-----------------------------------------|
G |-----------------------------------------|
D |-----------------------------------------|
A |-101010---10-10-10---101010---10-10-10---|
E |-8-8-8----11-11-11---8-8-8----10-10-10---|

VERSE
0:45
E |-----------------|
B |-----------------|
G |-----------------|
D |-1010101010101010|
A |-1010101010101010|
E |-8-8-8-8-8-8-8-8-| (TEN NOT ONE NOUGHT)

FILL
0:57
E |-----------------------------|
B |-----------------------------|
G |---------6-6-----------------|
D |-3-3-5-5-6-6-6-6-8-8-8-8-8-8-|
A |-3-3-5-5-4-4-6-6-8-8-8-8-8-8-|
E |-1-1-3-3-----4-4-6-6-6-6-6-6-|

VERSE
1:01
E |-----------------|
B |-----------------|
G |-----------------|
D |-1010101010101010|
A |-1010101010101010|
E |-8-8-8-8-8-8-8-8-| (TEN NOT ONE NOUGHT)

FILL
1:07
E |-----------------------------|
B |-----------------------------|
G |---------6-6-----------------|
D |-3-3-5-5-6-6-6-6-8-8-8-8-8-8-|
A |-3-3-5-5-4-4-6-6-8-8-8-8-8-8-|
E |-1-1-3-3-----4-4-6-6-6-6-6-6-|

VERSE
1:11
E |-----------------|
B |-----------------|
G |-----------------|
D |-1010101010101010|
A |-1010101010101010|
E |-8-8-8-8-8-8-8-8-| (TEN NOT ONE NOUGHT)

FILL
1:16
E |-----------------------------|
B |-----------------------------|
G |---------6-6-----------------|
D |-3-3-5-5-6-6-6-6-8-8-8-8-8-8-|
A |-3-3-5-5-4-4-6-6-8-8-8-8-8-8-|
E |-1-1-3-3-----4-4-6-6-6-6-6-6-|

VERSE
1:20
E |-----------------|
B |-----------------|
G |-----------------|
D |-1010101010101010|
A |-1010101010101010|
E |-8-8-8-8-8-8-8-8-| (TEN NOT ONE NOUGHT)

FILL
1:27
E |-----------------------------|
B |-----------------------------|
G |---------6-6-----------------|
D |-3-3-5-5-6-6-6-6-8-8-8-8-8-8-|
A |-3-3-5-5-4-4-6-6-8-8-8-8-8-8-|
E |-1-1-3-3-----4-4-6-6-6-6-6-6-|

CHORUS
1:29
E |-------------------------------------|
B |-------------------------------------|
G |-------------------------------------|
D |-13-13-13-13-13-13-13-13-12-12-12-10-|
A |-13-13-13-13-13-13-13-13-12-12-12-10-|
E |-11-11-11-11-11-11-11-11-10-10-10-8--|

CHORUS LEAD

E |---------------------------------------------------------------------------------|
B |---------------------------------------------------------------------------------|
G |---------------------------------------------------------------------------------|
D |------------8-10-8-10p8----8-10---8-10-8-(12)-10-(12)-10-(12)-10-(12)-10-(12)-10-|
A |-----6-8-10-------------10-------------------------------------------------------|
E |-6-8-----------------------------------------------------------------------------|

E |---------------------------------------|
B |---------------------------------------|
G |-(12)-10-8------8----------------------|
D |-----------10------10--|LET RING|------|
A |---------------------------------------|
E |---------------------------------------|

CHORUS 2 LEAD

E |------------------------------------------------------|
B |-(13)-11-(13)-11-(13)-11-(13)-11-(13)-11---8----------|(USE YOUR 4TH FINGER TO BEND)
G |------------------------------------------------------|
D |----------------------------------------------10------|
A |------------------------------------------------------|
E |------------------------------------------------------| (X2)

CHORUS LEAD 3

E |------------------------------------------------------------------------|
B |-----------------------------------------------11------11------11-------|
G |--------------------------------8----8-10-(12)----(12)----(12)----(12)--|
D |------------8-10-8-10p8----8-10---10------------------------------------|
A |-----6-8-10-------------10----------------------------------------------|
E |-6-8--------------------------------------------------------------------|

E |-------------------|
B |-------------------|
G |-(12)-10-8---------|
D |-----------10------|
A |-------------------|
E |-------------------|

E |------------------------------------------------------|
B |-(13)-11-(13)-11-(13)-11-(13)-11-(13)-11---8----------|(USE YOUR 4TH FINGER TO BEND)
G |------------------------------------------------------|
D |----------------------------------------------10------|
A |------------------------------------------------------|
E |------------------------------------------------------| (X3)





Comments


Popular Queens Of The Stone Age tabs & chords
Hanging Tree 1 Bass Tabs
Rickshaw Bass Tabs
Someones In The Wolf Bass Tabs
The Quick And The Pointless 1 Bass Tabs
Skin On Skin Drum Tabs
God Is In The Radio Tabs
In My Head 6 Tabs
Millionaire 1 Tabs
Someones In The Wolf Tabs
The Vampyre Of Time And Memory Tabs


Song lyrics



↑ Back to top | Tablatures and chords are parodies/interpretations of the original songs. You may use it for private study, scholarship, research or language learning purposes only
© 2014 AZChords.com Contact us | Privacy policy | DMCA | Add/correct tabs | Request tabs | Top 50 tabs