» » »

Cathedral City Tabs (ver.1)

Artists:  A B C D E F G H I J K L M N O P Q R S T U V W X Y Z # 

Cathedral City Tabs (ver.1)

Queens Of The Stone Age
Rating:
0/5 (0 votes)

Hard to play? Try these video lessons and learn fast.
                Queens of the Stone Age - Cathedral City


Tuning - E A D G B e


Intro:

Bass:
G|--------------------------------------------------------------------| 
D|--------------------------------------------------------------------|
A|--------------------------------------------------------------------| 
E|---5-3-5b6r5----5-3-5\--------5-3-5b6r5----5-3-5\-------------------| 

Guitar 1:
e|--------12~----------12~-----------12~----------12~-----------------| 
B|---10~----------10~-----------10~----------10~----------------------|
G|--------------------------------------------------------------------| 
D|--------------------------------------------------------------------|
A|--------------------------------------------------------------------| 
E|--------------------------------------------------------------------| 

Guitar 2:
e|--------------------------------------------------------------------| 
B|--------------------------------------------------------------------|
G|--------------------------------------------------------------------| 
D|--------------------------------------------------------------------|
A|-----------------------------------------------------5---7/8\7------| 
E|---5/6----------5/6-----------5/6----------5/6---5h7---7------------|


Main Riff:
e|--------------------------------------------------------------------| 
B|--------------------------------------------------------------------|
G|--------------------------------------------------------------------| 
D|---7---7-7-7---7-7-7-----------------7---7-7-7---7-7-7--------------|
A|---7---7-7-7---7-7-7-------5---7/8\7-7---7-7-7---7-7-7--------------| 
E|---5---5-5-5---5-5-5---5h7---7-------5---5-5-5---5-5-5--------------|

Other Filler Riffs:
e|--------------|-----------------|--------------------|--------------------|
B|--------------|-----------------|--------------------|--------------------|
G|--------------|-----------------|--------------------|--------------------|
D|------5---5~--|------5---7------|------8~-7-5--------|--------------------|
A|--------------|------------8\7--|--------------8-7~--|-----5h7-7p5--------|
E|--5h7---7-----|--5h7---7--------|--5/7---------------|--5h7-------7p5-7~--|


Chorus:

Guitar 1:
e|--------------------------------------------------------------------| 
B|--------------------------------------------------------------------|
G|--------------------------------------------------------------------| 
D|---10-10-10-9-7---3~---x-7---7-7-7---7-7-7---7-7-7------------------|
A|---10-10-10-9-7---3~---x-7---7-7-7---7-7-7---7-7-7------------------| 
E|---8--8--8--7-5-0-1~---x-5---5-5-5---5-5-5---5-5-5------------------|

Guitar 2:
e|--------------------------------------------------------------------| 
B|-----------------------------------8--------------------------------|
G|-----------------------7b8-7-5---5----5--7b8r7--5-----5--7----------| 
D|---10-10-10-9-7---3~-----------7-------------------7----------------|
A|---10-10-10-9-7---3~------------------------------------------------| 
E|---8--8--8--7-5-0-1~------------------------------------------------|


After Chorus Solo:
e|---12--------12--------12---------13--------------------------------| 
B|------10--------10--------10---10----10-----------------------------|
G|---------9---------9---------9----------9---------------------------| 
D|--------------------------------------------------------------------|
A|--------------------------------------------------------------------| 
E|--------------------------------------------------------------------|


Transition Riff:
e|--------------| 
B|--------------|
G|--------------| 
D|--------------|
A|--------------| 
E|---7-5-0-1~---|


Ending Riff:
e|--------------------------------------------------------------------| 
B|--------------------------------------------------------------------|
G|--------------------------------------------------------------------| 
D|--------------------------------------------------------------------|
A|--------------------------------------------------------------------| 
E|--5-3-5-5b6r5-3-5---5-3-5---5b6~---5-3-5-5b6r5-3-5---5-3-5----5b6~--|

e|--------------------------------------------------------------------| 
B|--------------------------------------------------------------------|
G|--------------------------------------------------------------------| 
D|--------------------------------------------------------------------|
A|--------------------------------------------------------------------| 
E|--5-3-5-5b6r5-3-5---5-3-5---5b6~---5-3-5-5b6r5-3-5---5-3-5x---------|
            
Hard to play? Try these video lessons and learn fast. | Correct




comments powered by Disqus
↑ Back to top | Tablatures and chords are parodies/interpretations of the original songs. You may use it for private study, scholarship, research or language learning purposes only