» » »

Broken Box Bass tabs (ver.1)

Artists:  A B C D E F G H I J K L M N O P Q R S T U V W X Y Z # 

Broken Box Bass tabs (ver.1)

Queens Of The Stone Age
Rating:
4/5 (6 votes)

Hard to play? Try these video lessons and learn fast.
                Band- Queens Of The Stone Age
Song- Broken Box

H=hammer
~=Let ring
x=Mute string

Verse:
G-------------------------------------|
D-------------------------------------|
A–------------------------------------|
E-3-5-5-5--3-5-5-5--3-5-5-5--3-5-5-5--|  x2

G------------------------------------|
D------------------------------------|
A-3-5-5-5--3-5-5-5--3-5-5-5--3-5-5-5-|
E------------------------------------|

G--------------------------------------|
D--------------------------------------|
A–-------------------------------------|
E-3-5-5-5--3-5-5-5--3-5-5-5--3-5-5-5---|

Chorus:
G-----------------------------------------------------------------------|
D-----------------------------------------------------------------------|
A------------------------------------3h5-5-5--3h5-5-5--3h5-5-5--3h5-5-5-|
E–3h5-5-5—3h5-5-5--1h3-3-3--1h3-3-3-------------------------------------|

G-----------------------------------------------------------------------|
D-----------------------------------------------------------------------|
A---------------------------------------------------------------3h5-5-5-|
E–3h5-5-5—3h5-5-5--6h8-8-8--6h8-8-8--1h3-3-3--1h3-3-3--1h3-3-3----------|

Bridge
G-------------------------------------|
D-------------------------------------|
A----------------------------2h4------|
E---9-9-8--8-7-7--6--5~--2h4----------|

G----------------------------------------------|
D----------------------------------------------|
A------------------------------2h4-2h4-----2h4-|
E---12-12-11--11-10-10--9--8~----------2h4-----|

G--------------------------------------------|
D--------------------------------------------|
A-----------------------2h4-2h4-----2h4------|
E---9-9-8--8-7-7--6--5~---------2h4----------|

G-------------------------------------|
D-------------------------------------|
A-------------------------------------|
E---9-9-8--8-7-7--6-x-----------------|

The just keep repeating the chorus and verse until the song ends. Fun song to play.
            
Hard to play? Try these video lessons and learn fast. | Correct




comments powered by Disqus
↑ Back to top | Tablatures and chords are parodies/interpretations of the original songs. You may use it for private study, scholarship, research or language learning purposes only