» » »

18 Ad Bass tabs (ver.1)

Artists:  A B C D E F G H I J K L M N O P Q R S T U V W X Y Z # 

18 Ad Bass tabs (ver.1)

Queens Of The Stone Age
Rating:
0/5 (0 votes)

Hard to play? Try these video lessons and learn fast.
                
          INTRO AND VERSE

G]----------------------------|
D]----------------------------|         X 10
A]-5-3-5-3-5-3-5-3-5-3--------|
E]----0---0---0---0---1-1-1-1-|


          CHORAS

G]--------------------------|
D]--------------------------|          X 8
A]--7-10-10-10-7-8-8-8-8-8--|
E]-0-0--------0-----------5-|

          VERSE

G]----------------------------|
D]----------------------------|         X 10
A]-5-3-5-3-5-3-5-3-5-3--------|
E]----0---0---0---0---1-1-1-1-|

         OUTRO
G]----------------------------|
D]----------------------------|
A]--7-10-10-10-7-8-8-8-8-8----|
E]-0-0--------0-----------5-0-|

         FINISH
            
Hard to play? Try these video lessons and learn fast. | Correct




comments powered by Disqus
↑ Back to top | Tablatures and chords are parodies/interpretations of the original songs. You may use it for private study, scholarship, research or language learning purposes only