» » »

Queen Adreena, Pretty Polly Tabs (ver.2)

Artists:  A B C D E F G H I J K L M N O P Q R S T U V W X Y Z # 

Pretty Polly Tabs (ver.2)

Queen Adreena Tabs
 Rating:
4/5 (4 votes)
Pretty Polly lessons Tabs too difficult? Try these video lessons and learn fast
1
                clean sound with tremolo

part 1
e-----5-----------8--7--|
b-----6---------------8-|
g-----5--------5--------|repeat X times, then go to part 2
d-----7-------5---------|
a--5--5------0----------|
e-----------------------|

part 2
e---------------------------(6)---------------------|
b----6---6-6---6---6-6-------6----------6-----------|
g----5---5-5---5---5-5-------7--------7---7---------|go to part 1 :)
d----7---7-7---7---7-7----5--5------5------5--------|
a-5--5---5-5---5---5-5------------8------------3s5--|
e---------------------------------------------------|

overdrive part

e--------------------8-7---|
b-------6---------------8--|
g--7-7--5------------------|
d--7-7--7---7--7--7--------|
a--5-5--5---7--7--7--------|
e-----------5--5--5--------|
            
Submit corrections

comments powered by Disqus
↑ Back to top | Queen Adreena Tabs for Pretty Polly. Lyrics for acoustic guitar and electric guitar. 1 Tablatures and chords are parodies/interpretations of the original songs. You may use it for private study, scholarship, research or language learning purposes only