» » »

Queen Adreena, Pretty Polly Bass tabs (ver.2)

Artists:  A B C D E F G H I J K L M N O P Q R S T U V W X Y Z # 

Pretty Polly Bass tabs (ver.2)

Queen Adreena Tabs
 Rating:
4/5 (4 votes)
Pretty Polly lessons Tabs too difficult? Try these video lessons and learn fast
                
h = hammer-on
p = pull-off
~ = let note ring
^ = bend
x = mute

Tuning: Standard

Bass doesn't come in until 2:24;
G|------------------------
D|------------------------
A|-5--5--5--3--7777-7/-\--
E|------------------------ x7

G|-------------------------------
D|-------------------------------
A|-------------------------------
E|-3--3--3--3-/--15--15--15--15--

G|------------------------
D|------------------------
A|-5--5--5--3--7777-7/-\--
E|------------------------ x7

G|---------------------------
D|---------------------------
A|-5--5--5--3--7777-7/-5~-\--
E|---------------------------

Small break where Katie sings on, drums bring bass back in at 3:52;

G|------------------------
D|------------------------
A|-5--5--5--3--7777-7/-\--
E|------------------------ x7

G|-------------------------------
D|-------------------------------
A|-------------------------------
E|-3--3--3--3-/--15--15--15--15--

G|------------------------
D|------------------------
A|-5--5--5--3--7777-7/-\--
E|------------------------ x9

G|---------------------------
D|---------------------------
A|-5--5--5--3--7777-7/-5~-\--
E|---------------------------

Song ends.
            
Submit corrections

comments powered by Disqus
↑ Back to top | Queen Adreena Bass for Pretty Polly. Lyrics for acoustic guitar and electric guitar. Tablatures and chords are parodies/interpretations of the original songs. You may use it for private study, scholarship, research or language learning purposes only