>
 >
Pretty Like Drugs 2

Pretty Like Drugs 2 Guitar Tabs

Queen Adreena - Pretty Like Drugs 2 chords, tabs, tablatures, lyrics

Guitar lessons | Add/correct | Request | Top 50 tabs Artists:  A B C D E F G H I J K L M N O P Q R S T U V W X Y Z 0-9

Pretty Like Drugs 2 Guitar Tabs – Queen Adreena

CD, Sheet music, Poster

Do you like Pretty Like Drugs 2? Share with your friends now
Bass TabsTabsTabs v2Tabs v3
QueenAdreena Ė Pretty like Drugs

Standard Tuning
Intro/Main Riff
                          x8
-------------------------                 ---
-------------------------  after 8th time ---
-------------------------                 ---
-------------------------                 ---
-5-5--1-3-1-5-3-1-1-3-1--                 -5- hold chord
-3-3---------------------                 -3-

Bass plays riff through verse

---
---
---
---
-5- fade in
-3-
                          x8
-------------------------               
-------------------------  
-------------------------                
-------------------------               
-5-5--1-3-1-5-3-1-1-3-1--                
-3-3--------------------- 

1 min 51
-----9b-9b----8b-8b------7b-7b-----6b-6b------15b-15b-----14b-14b-----
-5-5-------5-5-------5-5-------5-5--------5-5---------5-5---------5-5-
-3-3-------3-3-------3-3-------3-3--------3-3---------3-3---------3-3-

                             2min 13
-------------------     ---  ----------------
-------------------     ---  ----------------
-13b-13b---12b-12b-     ---  ----------------
-------------------     ---  ----------------
-------------------     -5-  -//////pick////-
-------------------     -3-  -//////slide//--


3 min 12 
fade in again, then

-------------------------  x8             
-------------------------  
-------------------------                
-------------------------               
-5-5--1-3-1-5-3-1-1-3-1--                
-3-3---------------------

3 min 31

------------------  x8
------------------
------------------
--------------/10-
-5-5-5-5-5-5--/8--
-3-3-3-3-3-3------

------------- x4
-------------
-------------
-------------
-5-5-5-5-5-5-
-3-3-3-3-3-3-

Ok, I donít know this is all right, sorry if it isnít. 
I dont even like this band, why i tabbed it i dont know?! haha





Comments


Popular Queen Adreena tabs & chords
A Bed Of Roses Bass Tabs
Cold Fish Bass Tabs
Cold Fish 1 Bass Tabs
Desert Lullaby Bass Tabs
Kitty Collar Tight 1 Bass Tabs
Pretty Polly 1 Bass Tabs
Razorblade Sky Bass Tabs
Soda Dreamer Bass Tabs
Pretty Polly Tabs
Pretty Polly 1 Tabs


Song lyrics



↑ Back to top | Tablatures and chords are parodies/interpretations of the original songs. You may use it for private study, scholarship, research or language learning purposes only
© 2014 AZChords.com Contact us | Privacy policy | DMCA | Add/correct tabs | Request tabs | Top 50 tabs