» » »

Queen Adreena, Pretty Like Drugs Bass tabs (ver.1)

Artists:  A B C D E F G H I J K L M N O P Q R S T U V W X Y Z # 

Pretty Like Drugs Bass tabs (ver.1)

Queen Adreena Tabs
 Rating:
4/5 (4 votes)
Pretty Like Drugs lessons Tabs too difficult? Try these video lessons and learn fast
1
                                              Pretty Like Drugs                                 


                                                                   Queen Adreena
Bass



             E  E  E  E  E  E   Q       E  E  E  E  E  E   Q     
G||-------|--------------------------|--------------------------|
D||-------|--------------------------|--------------------------|
A||-------|--------------------------|--------------------------|
E||-------|--3--3--3--3--3--6s--1----|--3--3--3--3--3--6s--1----|


  E  E  E  E  E  E   Q       E  E  E  E  E  E   Q     
--------------------------|--------------------------|
--------------------------|--------------------------|
--------------------------|--------------------------|
--3--3--3--3--3--6s--1----|--3--3--3--3--3--6s--1----|


  E  E  E  E  E  E   Q       E  E  E  E  E  E   Q     
--------------------------|--------------------------|
--------------------------|--------------------------|
--------------------------|--------------------------|
--3--3--3--3--3--6s--1----|--3--3--3--3--3--6s--1----|


  E  E  E  E  E  E   Q       E  E  E  E  E  E   Q     
--------------------------|--------------------------|
--------------------------|--------------------------|
--------------------------|--------------------------|
--3--3--3--3--3--6s--1----|--3--3--3--3--3--6s--1----|


  E  E  E  E  E  E   Q       E  E  E  E  E  E   Q     
--------------------------|--------------------------|
--------------------------|--------------------------|
--------------------------|--------------------------|
--3--3--3--3--3--6s--1----|--3--3--3--3--3--6s--1----|


  E  E  E  E  E  E   Q       E  E  E  E  E  E   Q     
--------------------------|--------------------------|
--------------------------|--------------------------|
--------------------------|--------------------------|
--3--3--3--3--3--6s--1----|--3--3--3--3--3--6s--1----|


  E  E  E  E  E  E   Q       E  E  E  E  E  E   Q     
--------------------------|--------------------------|
--------------------------|--------------------------|
--------------------------|--------------------------|
--3--3--3--3--3--6s--1----|--3--3--3--3--3--6s--1----|


  E  E  E  E  E  E   Q       E  E  E  E  E  E   Q     
--------------------------|--------------------------|
--------------------------|--------------------------|
--------------------------|--------------------------|
--3--3--3--3--3--6s--1----|--3--3--3--3--3--6s--1----|


  E  E  E  E  E  E   Q       E  E  E  E  E  E   Q     
--------------------------|--------------------------|
--------------------------|--------------------------|
--------------------------|--------------------------|
--3--3--3--3--3--6s--1----|--3--3--3--3--3--6s--1----|


  E  E  E  E  E  E   Q       E  E  E  E  E  E   Q     
--------------------------|--------------------------|
--------------------------|--------------------------|
--------------------------|--------------------------|
--3--3--3--3--3--6s--1----|--3--3--3--3--3--6s--1----|


  E  E  E  E  E  E   Q       E  E  E  E  E  E   Q     
--------------------------|--------------------------|
--------------------------|--------------------------|
--------------------------|--------------------------|
--3--3--3--3--3--6s--1----|--3--3--3--3--3--6s--1----|


  E  E  E  E  E  E   Q       E  E  E  E  E  E   Q     
--------------------------|--------------------------|
--------------------------|--------------------------|
--------------------------|--------------------------|
--3--3--3--3--3--6s--1----|--3--3--3--3--3--6s--1----|


  E  E  E  E  E  E   Q       E  E  E  E  E  E   Q     
--------------------------|--------------------------|
--------------------------|--------------------------|
--------------------------|--------------------------|
--3--3--3--3--3--6s--1----|--3--3--3--3--3--6s--1----|


  E  E  E  E  E  E   Q       E  E  E  E  E  E   Q     
--------------------------|--------------------------|
--------------------------|--------------------------|
--------------------------|--------------------------|
--3--3--3--3--3--6s--1----|--3--3--3--3--3--6s--1----|


  E  E  E  E  E  E   Q       E  E  E  E  E  E   Q     
--------------------------|--------------------------|
--------------------------|--------------------------|
--------------------------|--------------------------|
--3--3--3--3--3--6s--1----|--3--3--3--3--3--6s--1----|


  E  E  E  E  E  E   Q       E  E  E  E  E  E   Q     
--------------------------|--------------------------|
--------------------------|--------------------------|
--------------------------|--------------------------|
--3--3--3--3--3--6s--1----|--3--3--3--3--3--6s--1----|


  E  E  E  E  E  E   Q       E  E  E  E  E  E   Q     
--------------------------|--------------------------|
--------------------------|--------------------------|
--------------------------|--------------------------|
--3--3--3--3--3--6s--1----|--3--3--3--3--3--6s--1----|


  E  E  E  E  E  E   Q       E  E  E  E  E  E   Q     
--------------------------|--------------------------|
--------------------------|--------------------------|
--------------------------|--------------------------|
--3--3--3--3--3--6s--1----|--3--3--3--3--3--6s--1----|


  E  E  E  E  E  E   Q       E  E  E  E  E  E   Q     
--------------------------|--------------------------|
--------------------------|--------------------------|
--------------------------|--------------------------|
--3--3--3--3--3--6s--1----|--3--3--3--3--3--6s--1----|


  E  E  E  E  E  E   Q       E  E  E  E  E  E   Q     
--------------------------|--------------------------|
--------------------------|--------------------------|
--------------------------|--------------------------|
--3--3--3--3--3--6s--1----|--3--3--3--3--3--6s--1----|


  E  E  E  E  E  E   Q       E  E  E  E  E  E   Q     
--------------------------|--------------------------|
--------------------------|--------------------------|
--------------------------|--------------------------|
--3--3--3--3--3--6s--1----|--3--3--3--3--3--6s--1----|


  E  E  E  E  E  E   Q       E  E  E  E  E  E   Q     
--------------------------|--------------------------|
--------------------------|--------------------------|
--------------------------|--------------------------|
--3--3--3--3--3--6s--1----|--3--3--3--3--3--6s--1----|


  E  E  E  E  E  E   Q       E  E  E  E  E  E   Q     
--------------------------|--------------------------|
--------------------------|--------------------------|
--------------------------|--------------------------|
--3--3--3--3--3--6s--1----|--3--3--3--3--3--6s--1----|


  E  E  E  E  E  E   Q       E  E  E  E  E  E   Q     
--------------------------|--------------------------|
--------------------------|--------------------------|
--------------------------|--------------------------|
--3--3--3--3--3--6s--1----|--3--3--3--3--3--6s--1----|


  E  E  E  E  E  E   Q       E  E  E  E  E  E   Q     
--------------------------|--------------------------|
--------------------------|--------------------------|
--------------------------|--------------------------|
--3--3--3--3--3--6s--1----|--3--3--3--3--3--6s--1----|


  E  E  E  E  E  E   Q       E  E  E  E  E  E   Q     
--------------------------|--------------------------|
--------------------------|--------------------------|
--------------------------|--------------------------|
--3--3--3--3--3--6s--1----|--3--3--3--3--3--6s--1----|


  E  E  E  E  E  E   Q       E  E  E  E  E  E   Q     
--------------------------|--------------------------|
--------------------------|--------------------------|
--------------------------|--------------------------|
--3--3--3--3--3--6s--1----|--3--3--3--3--3--6s--1----|


  E  E  E  E  E  E   Q       E  E  E  E  E  E   Q              
--------------------------|--------------------------|-------||
--------------------------|--------------------------|-------||
--------------------------|--------------------------|-------||
--3--3--3--3--3--6s--1----|--3--3--3--3--3--6s--1----|-------||




Duration Legend
---------------
W - whole
H - half
Q - quarter
E - 8th
S - 16th
T - 32nd
X - 64th
. - note dotted
|-n-|  - n-tuplets


Tablature Legend
----------------
L - tied note
x - dead note
g - grace note
(n) - ghost note
> - accentuded note
NH - natural harmonic
AH - artificial harmonic
TH - tapped harmonic
SH - semi harmonic
PH - pitch harmonic
h - hammer on
p - pull off
b - bend
br - bendRelease
pb - preBend
pbr - preBendRelease
brb - bendReleaseBend
\n/ - tremolo bar dip
\n - tremolo bar dive
-/n - tremolo bar Release up
/n\ - tremolo bar inverted dip
/n - tremolo bar return
-\n - tremolo bar Release down
S - shift slide
s - legato slide
/ -  slide into from below or out of upwards
\ -  slide into from above or out of downwards
~ - vibrato
W - wide vibrato
tr - trill
TP - tremolo picking
T - tapping
S - slap
P - pop
< - fade in
^ - brush up
v - brush down
            
Submit corrections

comments powered by Disqus
↑ Back to top | Queen Adreena Bass for Pretty Like Drugs. Lyrics for acoustic guitar and electric guitar. 1 Tablatures and chords are parodies/interpretations of the original songs. You may use it for private study, scholarship, research or language learning purposes only