» » »

We Will Rock You Bass tabs (ver.2)

Artists:  A B C D E F G H I J K L M N O P Q R S T U V W X Y Z # 

We Will Rock You Bass tabs (ver.2)

Queen
Rating:
0/5 (0 votes)

Hard to play? Try these video lessons and learn fast.
                -------------------------------------------------------------------------------
                    We Will Rock You (Fast Version) - Queen                    
-------------------------------------------------------------------------------



Tuning: Standard (GDAE)



Intro
-----

G|----------------|
D|----------------|
A|----------------|
E|--------0---0---|

G|----------------|
D|----------------|
A|-------5h7-7-7--| (4x)
E|-0---0----------|

G|---------------------|-----------------|-----------------|
D|---------------------|-----------------|-----------------|
A|-10-10-10-10-5-5-5-5-|-3-3-3-3-3-3-----|-7-7-7-7-7-7-7-7-| (2x)
E|---------------------|-------------3-0-|-----------------|


Verse 1
-------
G|-----------------|-----------------|---------------------|
D|-----------------|-----------------|---------------------|
A|-7-7-7-7-7-7-7-7-|-7-7-7-7-7-7-7-7-|-3-3-3-3-10-10-10-10-|
E|-----------------|-----------------|---------------------|

G|-------------|
D|-------------|
A|-7-7-7-7-----| (2x)
E|-----------0-|

G|-----------------|-----------------|
D|-----------------|-----------------|
A|-5-5-5-5-5-5-5-5-|-7-7-7-7-7-7-7-7-|
E|-----------------|-----------------|

Chorus
------
G|---------------------|-----------------|-----------------|
D|---------------------|-----------------|-----------------|
A|-10-10-10-10-5-5-5-5-|-3-3-3-3-3-3-----|-7-7-7-7-7-7-7-7-| (2x)
E|---------------------|-------------3-0-|-----------------|

Verse 2
-------
G|-----------------|-----------------|---------------------|
D|-----------------|-----------------|---------------------|
A|-7-7-7-7-7-7-7-7-|-7-7-7-7-7-7-7-7-|-3-3-3-3-10-10-10-10-|
E|-----------------|-----------------|---------------------|

G|-------------|
D|-------------|
A|-7-7-7-7-----| (2x)
E|-----------0-|

G|-----------------|-----------------|
D|-----------------|-----------------|
A|-5-5-5-5-5-5-5-5-|-7-7-7-7-7-7-7-7-|
E|-----------------|-----------------|

Chorus 2
--------
G|---------------------|-----------------|-----------------|
D|---------------------|-----------------|-----------------|
A|-10-10-10-10-5-5-5-5-|-3-3-3-3-3-3-----|-7-7-7-7-7-7-7-7-|
E|---------------------|-------------3-0-|-----------------|

G|---------------------|-----------------|
D|---------------------|-----------------|
A|-10-10-10-10-5-5-5-5-|-3-3-3-3-3-3-3-3-|
E|---------------------|-----------------|

Bass "Solo"
-----------

G|----------------|
D|----------------|
A|-13h15-15-15-15-| (4x)
E|----------------|


G|----------------|-----------------|-----------------|
D|----------------|-----------------|-----------------|
A|-10-10-10-8-8-8-|-3-3-3-3-3-3-3-3-|-3-3-3-3-3-3-3-3-|
E|----------------|-----------------|-----------------|

Guitar Solo
-----------

G|-----------------|-----------------|---------------------|
D|-----------------|-----------------|---------------------|
A|-7-7-7-7-7-7-7-7-|-7-7-7-7-7-7-7-7-|-3-3-3-3-10-10-10-10-| (10x)
E|-----------------|-----------------|---------------------|

G|-----------------|
D|-----------------|
A|-7-7-7-7-7-7-7-7-|
E|-----------------|

Chorus 3
--------
G|---------------------|-----------------|-----------------|
D|---------------------|-----------------|-----------------|
A|-10-10-10-10-5-5-5-5-|-3-3-3-3-3-3-----|-7-7-7-7-7-7-7-7-| (2x)
E|---------------------|-------------3-0-|-----------------|

Verse 3
-------
G|-----------------|-----------------|---------------------|
D|-----------------|-----------------|---------------------|
A|-7-7-7-7-7-7-7-7-|-7-7-7-7-7-7-7-7-|-3-3-3-3-10-10-10-10-|
E|-----------------|-----------------|---------------------|

G|-------------|
D|-------------|
A|-7-7-7-7-----| (2x)
E|-----------0-|

G|-----------------|-----------------|
D|-----------------|-----------------|
A|-5-5-5-5-5-5-5-5-|-7-7-7-7-7-7-7-7-|
E|-----------------|-----------------|

Chorus 4
--------
G|---------------------|-----------------|-----------------|
D|---------------------|-----------------|-----------------|
A|-10-10-10-10-5-5-5-5-|-3-3-3-3-3-3-----|-7-7-7-7-7-7-7-7-| (2x)
E|---------------------|-------------3-0-|-----------------|

G|---------------------|-----------------|-----------------|
D|---------------------|-----------------|-----------------|
A|-10-10-10-10-5-5-5-5-|-3-3-3-3-3-3-----|-7---------------|
E|---------------------|-------------3-0-|-----------------|

End
---

G|-----------------|-----------------|-----------------|
D|-----------------|-----------------|-----------------|
A|-7-7-7-7-7-7-7-7-|-7-7-7-7-7-7-7-7-|-7---------------|
E|-----------------|-----------------|-----------------|

G|-----------------|---------7-9-9-7-------|-----------------|
D|-----------------|-----7-9---------9-7---|-----------------|
A|-7-7-7-7-7-7-7-7-|-7-9-----------------7-|-7---------------|
E|-----------------|-----------------------|-----------------|


| /  slide up
| \  slide down
| h  hammer-on
| p  pull-off
| ~  vibrato
| +  harmonic
| x  Mute note

===============================================================================
            
Hard to play? Try these video lessons and learn fast. | Correct




comments powered by Disqus
↑ Back to top | Tablatures and chords are parodies/interpretations of the original songs. You may use it for private study, scholarship, research or language learning purposes only