>
 >
We Will Rock You

We Will Rock You Bass Tabs

Queen - We Will Rock You chords, tabs, tablatures, lyrics

Guitar lessons | Add/correct | Request | Top 50 tabs Artists:  A B C D E F G H I J K L M N O P Q R S T U V W X Y Z 0-9

We Will Rock You Bass Tabs – Queen

CD, Sheet music, Poster

Do you like We Will Rock You? Share with your friends now
Bass TabsBass Tabs v2ChordsChords v2Drum TabsDrum Tabs v2Drum Tabs v3TabsTabs v2Tabs v3Tabs v4Tabs v5Tabs v6Ukulele
-------------------------------------------------------------------------------
			     WE WILL ROCK YOU - Queen
-------------------------------------------------------------------------------


Tuning: Standard

Notes: This is the fast studio version which features a full rock band instrumentation and 
was recorded for John Peel's BBC Radio-1 radio show. This is NOT the "stomp-stomp-clap" 
everyone knows. A live version can be heard as the opening song on "Live Killers" from 1979.


     Intro - m.4                                                              
     H        Q    E  E     W                   H.           E  E   
G||----------------------|-------------------|---------------------|
D||----------------------|-------------------|---------------------|
A||-------------------7--|--L----------------|--L------------L--7--|
E||----------------------|-------------------|---------------------|


  W                   W                   E  E  E  E  E  E  E  E   
-------------------|-------------------|--------------------------|
-------------------|-------------------|--------------------------|
--L----------------|--L----------------|--7--7--7--7--7--7--7--7--|
-------------------|-------------------|--------------------------|


  E  E  E  E  Q    E  E     E  E  E  E  E  E  E  E     E  E  E  E  E  E  E  E   
-----9--9--9--9----9--9--|--------------------------|--------------------------|
-------------------------|--------------------------|-----------------------5--|
--7----------------------|--7--7--7--7--7--7--7--7--|--7--7--7--7--7--7--7-----|
-------------------------|--------------------------|--------------------------|


  E  E  Q    E  E  Q       E  E  Q    E  E  E  E     E  E  E  E  E  E  E  E   
------------------------|-------------------------|--------------------------|
--5--5--5---------------|-------------------------|--------------------------|
-------------5--5--5----|--3--3--3----------------|--------------------4--7--|
------------------------|-------------3--2--1--0--|--0--0--0--0--0--0--------|


  E  E  E  E  E  E  E  E     E  E  Q    E  E  Q       E  E  Q    E  E  E  E   
--------------------------|------------------------|-------------------------|
--------------------------|--5--5--5---------------|-------------------------|
--7--7--7--7--7--7--7--7--|-------------5--5--5----|--3--3--3----------------|
--------------------------|------------------------|-------------3--2--1--0--|


  Verse 1                                                                            
  E  E  E  E  E  E  E  E     E  E  E  E  E  E  E  E     E  E  E  E  E  E  Q     
--------------------------|--------------------------|-------------------------|
--------------------------|--------------------------|-------------------------|
--------------------------|--7--7--7--7--7--7--7--7--|--7--7--7--7--7--7--7----|
--0--0--0--0--0--0--0--0--|--------------------------|-------------------------|


  E  E  Q    E  E  E  E     E  E  E  E  E  E  E  E     E  E  E  E  E  E  E  E   
-------------------------|--------------------------|--------------------------|
-------------------------|--------------------------|--------------------------|
--3--3--3----------------|--------------7--7--7--7--|--7--7--7--7--7--7--7--7--|
-------------3--2--1--0--|--0--0--0--0--------------|--------------------------|


                                                       Chorus 1                     
  E  E  E  E  E  E   Q       E  E  Q    E  E  E  E     E  E  Q    E  E  Q     
--------------------------|-------------------------|------------------------|
--------------------/9----|--7--5-------------------|--5--5--5---------------|
--5--5--5--5--5--5--------|--------7----7--7--7--7--|-------------5--5--5----|
--------------------------|-------------------------|------------------------|


  E  E  Q    E  E  E  E     E  E  E  E  E  E  E  E     E  E  E  E  E  E  E  E   
-------------------------|--------------------------|--------------------------|
-------------------------|--------------------------|--------------------------|
--3--3--3----------------|--7--7--7--7--7--7--7--7--|--7--7--7--7--7--7--7--7--|
-------------3--2--1--0--|--------------------------|--------------------------|


                                                      Verse 2                       
  E  E  Q    E  E  E  E     E  E  Q    E  E  E  E     E  E  E  E  E  E  E  E   
-------------------------|-------------------------|--------------------------|
--5--5--5----------------|-------------------------|--------------------------|
-------------5--5--5--5--|--3--3--3----------------|--------------7--7--7--7--|
-------------------------|-------------3--2--1--0--|--0--0--0--0--------------|


  E  E  E  E  E  E  E  E     E  E  E  E  E  E  Q       E  E  Q    E  E  E  E   
--------------------------|-------------------------|-------------------------|
--------------------------|-------------------------|-------------------------|
--7--7--7--7--7--7--7--7--|--7--7--7--7--7--7--7----|--3--3--3----------------|
--------------------------|-------------------------|-------------3--2--1--0--|


  E  E  E  E  E  E  E  E     E  E  E  E  E  E  E  E     E  E  E  E  E  E  Q     
--------------------------|--------------------------|-------------------------|
--------------------------|--------------------------|-------------------------|
--------7--7--7--7--7--7--|--7--7--7--7--7--7--7--7--|--5--5--5--5--5--5--5----|
--0--0--------------------|--------------------------|-------------------------|


                            Chorus 2                                                
  E  E  Q    E  E  E  E     E  E  E  E  E  E  Q       E  E  Q    E  E  E  E   
-------------------------|-------------------------|-------------------------|
-------------------------|--5--5--5--5-------------|-------------------------|
-------------7--7--7--7--|--------------5--5--5----|--3--3--3----------------|
--5--3--0----------------|-------------------------|-------------3--2--1--0--|


  E  E  E  E  E  E  E  E     E  E  E  E  E  E  E  E     E  E  Q    E  E  Q     
--------------------------|--------------------------|------------------------|
--------------------------|--------------------------|--5--5--5---------------|
--------------7--7--7--7--|--7--7--7--7--7--7--7--7--|-------------5--5--5----|
--0--0--0--0--------------|--------------------------|------------------------|


                              Breakdown                                 
  E  E  E  E  E  E  E  E      E   E   E     E   E   E   E   E   
--------------------------|------------------------------------|
--------------------------|--10--10--10--9g10--10--10--10--10--|
--3--3--3--3--------------|------------------------------------|
--------------3--2--1--0--|------------------------------------|


   E   E   E   E   E  E  E  E     E  E  E  E  E  E  E  E   
-------------------------------|--------------------------|
--10--10--10--10--10-----------|--------------------------|
----------------------3--3--3--|--3--3--3--3--3--3--3--3--|
-------------------------------|--------------------------|


                            Guitar Solo                                                  
  E  E  E  E  E  E  Q       E  E  E  E  E  E  E  E     E  E  E  E  E  E  E  E   
-------------------------|--------------------------|--------------------------|
-------------------------|--------------------------|--------------------------|
--3--3--3--3--5--6--7----|--7--7--7--7--7--7--7--7--|--7--7--7--7--7--7--7--7--|
-------------------------|--------------------------|--------------------------|


  E  E  E  E  E  E  Q       E  E  Q    E  E  Q       E  E  E  E  E  E  E  E   
-------------------------|------------------------|--------------------------|
-------------------------|------------------------|--------------------------|
--7--7--7--7--7--7--7----|--3--3--3---------------|--7--7--7--7--7--7--7--7--|
-------------------------|-------------3--3--3----|--------------------------|


  E  E  E  E  E  E  E  E     E  E  E  E  E  E  E  E     E  E  Q    E  E  E  E   
--------------------------|--------------------------|-------------------------|
--------------------------|--------------------------|-------------------------|
--7--7--7--7--7--7--7--7--|--7--7--7--7--7--7--7--7--|--3--3--3----------------|
--------------------------|--------------------------|-------------3--2--1--0--|


  E  E  E  E  E  E  E  E     E  E  E  E  E  E  E  E   
--------------------------|--------------------------|
--------------------------|--------------------------|
--7--7--7--7--7--7--7--7--|--7--7--7--7--7--7--7--7--|
--------------------------|--------------------------|


  E  E  E  E  E  E  E  E     E  E  Q    E  E  E  E     E  E  E  E  E  E  E  E   
--------------------------|-------------------------|--------------------------|
--------------------------|-------------------------|--------------------------|
--7--7--7--7--7--7--7--7--|--3--3--3----------------|--7--7--7--7--7--7--7--7--|
--------------------------|-------------3--2--1--0--|--------------------------|


  E  E  E  E  E  E  E  E     E  E  E  E  E  E  E  E   
--------------------------|--------------------------|
--------------------------|--------------------------|
--7--7--7--7--7--7--7--7--|--7--7--7--7--7--7--7--7--|
--------------------------|--------------------------|


  E  E  E  E  E  E  E  E     E  E  E  E  E  E  Q       E  E  Q    E  E  E  E   
--------------------------|-------------------------|-------------------------|
--------------------------|--5--5--5--5-------------|-------------------------|
--7--7--7--7--7--7--7--7--|--------------5--5--5----|--3--3--3----------------|
--------------------------|-------------------------|-------------3--2--1--0--|


                                                        Chorus 3                      
  E  E  E  E  E  E  E  E     E  E  E  E  E  E  E  E     E  E  Q    E  E  E  E   
--------------------------|--------------------------|-------------------------|
--------------------------|--------------------------|--5--5--5----------------|
--7--7--7--7--7--7--7--7--|--7--7--7--7--7--7--7--7--|-------------5--5--5--4--|
--------------------------|--------------------------|-------------------------|


                            Verse 3                                                  
  E  E  Q    E  E  E  E     E  E  E  E  E  E  E  E     E  E  E  E  E  E  E  E   
-------------------------|--------------------------|--------------------------|
-------------------------|--------------------------|--------------------------|
--3--3--3----------------|--------------7--7--7--7--|--7--7--7--7--7--7--7--7--|
-------------3--2--1--0--|--0--0--0--0--------------|--------------------------|


  E  E  E  E  E  E  E  E     E  E  Q    E  E  E  E     E  E  E  E  E  E  E  E   
--------------------------|-------------------------|--------------------------|
--------------------------|-------------------------|--------------------------|
--7--7--7--7--7--7--7--7--|--3--3--3----------------|--7--7--7--7--7--7--7--7--|
--------------------------|-------------3--2--1--0--|--------------------------|


  E  E  E  E  E  E  E  E     E  E  E  E  E  E  Q       E  E  Q    E  E  E  E   
--------------------------|-------------------------|-------------------------|
--------------------------|-------------------------|-------------------------|
--7--7--7--7--7--7--7--7--|--5--5--5--5--5--5--5----|-------------7--7--7--7--|
--------------------------|-------------------------|--5--3--0----------------|


  Chorus 4                                                                           
  E  E  Q    E  E  E  E     E  E  E  E  E  E  E  E     E  E  Q    E  E  E  E   
-------------------------|--------------------------|-------------9--9--9--9--|
--5--5--5----------------|--------------------------|-------------------------|
-------------5--5--5--5--|--3--3--3--3--------------|--7--7--7----------------|
-------------------------|--------------3--2--1--0--|-------------------------|


  E  E  E  E  Q    E  E     E  E  Q    E  E  E  E     E  E  Q    E  E  E  E   
--9--9--9--9--9----9--9--|-------------------------|-------------------------|
-------------------------|--5--5--5----------------|-------------------------|
-------------------------|-------------5--5--5--5--|--3--3--3----------------|
-------------------------|-------------------------|-------------3--2--1--0--|


  E  E  E  E  E  E  E  E     E  E  E  E  E  E  E  E     E  E  Q    E  E  E  E   
--------------------------|--------------------------|-------------------------|
--------------------------|--------------------------|--5--5--5----------------|
--------------7--7--7--7--|--7--7--7--7--7--7--7--7--|-------------5--5--5--5--|
--0--0--0--0--------------|--------------------------|-------------------------|


                            Outro                                       
  E  E  Q    E  E  E  E     Q    Q    H           W                 
-------------------------|---------------------|-------------------|
-------------------------|---------------------|-------------------|
--3--3--3----------------|---------------------|-------------------|
-------------3--2--1--0--|--5------------------|-------------------|


  H        Q       W                   W                   W                 
----------------|-------------------|-------------------|-------------------|
----------------|-------------------|-------------------|-------------------|
----------------|-------------------|--3----------------|--L----------------|
----------------|-------------------|-------------------|-------------------|


  W                   E   S  S  S  S  S  S  E  S S Q       Q    Q    H          
-------------------|------------------------------------|---------------------||
-------------------|-----12p-9-12p-9--------------------|---------------------||
-------------------|-----------------12-10--L-----------|---------------------||
--0----------------|--L------------------------0-0-0----|--0------------------||




Duration Legend
---------------
W - whole
H - half
Q - quarter
E - 8th
S - 16th

Tablature Legend
----------------
L - tied note
x - dead note
g - grace note
(n) - ghost note
> - accentuded note
NH - natural harmonic
AH - artificial harmonic
TH - tapped harmonic
SH - semi harmonic
PH - pitch harmonic
h - hammer on
p - pull off
b - bend





Comments


Popular Queen tabs & chords
Crazy Little Thing Called Love 4 Bass Tabs
Get Down, Make Love Bass Tabs
My Baby Does Me 3 Bass Tabs
Under Pressure 3 Bass Tabs
Lily Of The Valley Chords
Man On The Prowl Chords
Bohemian Rhaphsody Tabs
Now I'm Here Tabs
Who Needs You 1 Tabs
Innuendo Ukulele


Song lyrics



↑ Back to top | Tablatures and chords are parodies/interpretations of the original songs. You may use it for private study, scholarship, research or language learning purposes only
© 2014 AZChords.com Contact us | Privacy policy | DMCA | Add/correct tabs | Request tabs | Top 50 tabs