» » »

Queen, It's A Hard Life Tabs (ver.3)

Artists:  A B C D E F G H I J K L M N O P Q R S T U V W X Y Z # 

It's A Hard Life Tabs (ver.3)

Queen Tabs
 Rating:
4/5 (4 votes)
It's A Hard Life lessons Tabs too difficult? Try these video lessons and learn fast
1
                -------------------------------------------------------------------------------
                             It's A Hard Life Guitar Solo - Queen
-------------------------------------------------------------------------------
free it should be added for everyone. it is accurate than other versions so enjoy.

Tuning:standard

e|-------------|------------------------|-----------------------------------|
B|-------------|--11b-11--9-8---------8-|---3-4--------8----3-4--8-9-11-----|
G|-10b-----10--|--------------10-8-10---|-5-------8-10----3-----------------|
D|-------------|------------------------|-----------------------------------|
A|-------------|------------------------|-----------------------------------|
E|-------------|------------------------|-----------------------------------|

e|----------------------|---------------|-----------------|This section is
B|-----------8-9-11-11b-|-11-9-8-9------|-8-9-8-----------|just after piano
G|----7-8-10------------|---------------|--------10--10---|at the very start
D|-10-------------------|---------------|-----------------|of this solo....
A|----------------------|---------------|-----------------|
E|----------------------|---------------|-----------------|
                               (bend full down to next note where marked *)
e|-6-6-6-6---|----------|-------*--------------------------|--------*-------|
B|-3-3-3-3---|----------|--11b-11b--9--11--11-8------------|-8b-8b-8b-6--8--|
G|-3-3-3-3---|------8---|-----------------------8---8--7b--|----------------|
D|-----------|----------|----------------------------------|----------------|
A|-----------|----------|----------------------------------|----------------|
E|-----------|----------|----------------------------------|----------------|

e|---------------|---*-------------------------15-|-15b-15-15b-15-16b-16-15-|
B|---------------|-11b--13-15-16-16b--16----16----|-------------------------|
G|-8--5---8--8---|----------------------15--------|-------------------------|
D|---------------|--------------------------------|-------------------------|
A|---------------|--------------------------------|-------------------------|
E|---------------|--------------------------------|-------------------------|

e|-13-----|---18b--18-18---17-18----17-18-17-15----15-----------------------|
B|-----16-|-------------------------------------18---18-16-15--16-15-16-15--|
G|--------|-----------------------------------------------------------------|
D|--------|-----------------------------------------------------------------|
A|--------|-----------------------------------------------------------------|
E|--------|-----------------------------------------------------------------|

e|-15-----------------------------------|----------------|------------------|
B|---17--15-14-15-14-15-14\12-10-12-10--|----------------|----6-8-6--(6)\3--|
G|--------------------------------------|----------------|------------------|
D|--------------------------------------|----------------|-8----------------|
A|--------------------------------------|---1--------5---|------------------|
E|--------------------------------------|----------------|------------------|

e|------------------|--------------|----------------|-----------------------|
B|----6-8-6--(6)\3--|--------------|----------------|----6-8-6--(6)\1-------|
G|------------------|-5--3--4--5---|----------------|-----------------------|
D|-8----------------|--------------|----------------|-8---------------------|
A|------------------|--------------|-1--5----5-8----|-----------------------|
E|------------------|--------------|----------------|-----------------------|

e|--------------10-11--10-(10)\1--|--------------------------|--------------|
B|-----6-8--6---------------------|--------------------------|--------------|
G|--------------------------------|-------------10-10-(10)\5-|---------15-10|
D|-8------------------------------|-3--3-(3)/10--------------|-5-(5)/15-----|
A|--------------------------------|--------------8--8-(8)\3--|---------13--8|
E|--------------------------------|-1--1-(1)/8---------------|-3-(3)/13-----|


| /  slide up
| \  slide down
| h  hammer-on
| p  pull-off
| b  full bend
| *  bend on to next note
| x  Mute note
===============================================================================
            
Submit corrections

comments powered by Disqus
↑ Back to top | Queen Tabs for It's A Hard Life. Lyrics for acoustic guitar and electric guitar. 1 Tablatures and chords are parodies/interpretations of the original songs. You may use it for private study, scholarship, research or language learning purposes only