» » »

Queen, It's A Hard Life Bass tabs (ver.1)

Artists:  A B C D E F G H I J K L M N O P Q R S T U V W X Y Z # 

It's A Hard Life Bass tabs (ver.1)

Queen Tabs
Rating:
0/5 (0 votes)
It's A Hard Life lessons Tabs too difficult? Try these video lessons and learn fast
                It's a hard life by queen

intro is piano/vocals
then the bass comes in
Rate it

riff 1

|--------------------5/3-------3----------------------------------|
|----------------------------3---3--------------------------------|
|-13/1--------6-5-3------3/1-------1--3/6-5-3-------6-5-3---------|
|------1-3-3-----------------------------------3-3---------3------|

|-----------------------|
|-----------------------|
|-3-3-3-3--8-8-8-8------|
|-----------------------|

chorus - its a hard life

|---------------------------------------------------------------|
|---------------------------------------------13-----13----13---|
|---8-6---6-5----------------8-6---6---8-8-8/-----13----13------|
|-6-----6-----8-6--1-3-4-5-6-----6---6--------------------------|


riff 2
|------------8-----7----------3---3------3-----------------------8--------|
|---3-5----8-----7----------3---3------3---3-------------------8----------|
|-1------6-----5-----3--8h1--------x-1-------1--3h6-5-3------6-----5-3-1--|
|-------------------------------------------------------3-3---------------|

|----------------------|
|----------------------|
|-3-3-3-3--8-8-8-8-----|
|----------------------|

chorus

|---------------------------------------------------------------------|
|--------------------------------------------/13----13-----------13---|
|---8-6---6-5----------------8-6---6---8-8-8-----13-----13----13------|
|-6-----6-----8-6--1-3-4-5-6-----6---6---------------------11---------|

bridge/guitar solo

|-------------------------------------------------------------------------|
|----------------------------------------------6--5--3--------------8-8---|
|-(11)---(10)----6-------------6--5--3--3-3-3-----------------1-1-1/------|
|------------------6--4--3-----------------------------1-1-1--------------|

|---------------------------------------------------------------------|
|-----------------------6--5--3---------------------------------------|
|-----------3-3-3-3-3-------------3-3-3-3--3---1-1-1-1--1/--8-8-8-8---|
|-4--3--1-------------------------------------------------------------|

chorus/end

|-----------------------------------------------------------|
|-----------------------------------------------------------|
|---8-6---6-5----------------8-6---6-5----------------------|
|-6-----6-----8-6--1-3-4-5-6-----6-----8-6--1--3--4--5--6---|
            
Submit corrections

comments powered by Disqus
↑ Back to top | Queen Bass for It's A Hard Life. Lyrics for acoustic guitar and electric guitar. Tablatures and chords are parodies/interpretations of the original songs. You may use it for private study, scholarship, research or language learning purposes only