» » »

Queen, Don T Stop Me Now Bass tabs (ver.3)

Artists:  A B C D E F G H I J K L M N O P Q R S T U V W X Y Z # 

Don T Stop Me Now Bass tabs (ver.3)

Queen Tabs
 Rating:
4/5 (4 votes)
Don T Stop Me Now lessons Tabs too difficult? Try these video lessons and learn fast
1
                -------------------------------------------------------------------------------
                             DON'T STOP ME NOW - Queen
-------------------------------------------------------------------------------

Tuning: Standard

 Intro
G|--------------12/10------------10/14------------14/15------------15--|
D|----------------|----------------|----------------|------------------|
A|----------------|----------------|----------------|------------------|
E|----------------|----------------|----------------|------------------|


G/12--------------|----------------|----------------|----------------|
D|----------------|5-----3---------|----------------|5-----3---------|
A|----------------|----------3-----|----------------|-----------3----|
E|----------------|--------------3-|----------------|----------------|


G|----------------|----------------|
D|----------------|----------2-----|
A|----------6-----|3-3-3-5---------|
E|3-3-3-5---------|----------------|

  Verse
G||----------------|----------------|----------------|----------------|
D|*----------------|----------------|----------------|----------------|
A|*----------------|----------------|5-5-5-5-5-5-5-5-|----5-------5---|
E||1-1-1-1-1-1-1-1-|5-5-5-5-5-5-5-5-|----------------|3-3---3-3-3---3-|

 1                 2
G|----------------||----------------|----------------|8-8-8-8-8-8-8-8-|
D|----5-------5---*|----------------|----------------|----------------|
A|3-3---3-3-3---3-*|3-3-3-3-3-3-5-7-|8-8-8-8-8-8-8-8-|----------------|
E|----------------||----------------|----------------|----------------|


G|----------------|----------------|----------------|----------------|
D|8-8-8-8-8-8-8-7-|5-5-5-5-5-5-5-5-|4-4---4-4-4---4-|5-5-5-5-5-5-5-5-|
A|----------------|----------------|----5-------5---|----------------|
E|----------------|----------------|----------------|----------------|


G|----------------|----------------|----------------|----------------|
D|4-4---4-4-4---4-|5-5-5-5-5-7-8-5-|----------------|----------------|
A|----5-------5---|----------------|----------------|----------------|
E|----------------|----------------|3-3-5-5-6-6-7-7-|8-----8-8---8-8-|

  Chorus                                             1
G||----------------|----------------|----------------|----------------||
D|*----------------|----------------|----------------|----5-----------*|
A|*--------------5-|5-5-5-5-5-5-5-5-|----5-------5---|3-3---3-3-------*|
E||1-----3---5-----|----------------|3-3---3-3-3---3-|----------6-5-3-||

 2
G|----------------|----------------|----------------|----------------|
D|4-4---4-4-4---4-|5-----3---------|------------2-4-|5-----3---------|
A|----5-------5---|----------3-----|----5-----5-----|----------3-----|
E|----------------|--------------3-|3-3---3---------|--------------3-|


G|----------------|----------------|------------15--|----------------|
D|------3---------|----------------|------8---------|----------------|
A|----5-----------|----------------|------13--------|----------------|
E|3-3-------3-----|8-8-8-8-8-8-8-8-|6---------------|----------------|


G|-------|-------|-------|--------|
D|-Verse-|-Break-|-Verse-|-Chorus-|
A|-------|-------|-Solo--|--------|
E|-------|-------|-------|--------|


| /  slide up
| \  slide down
| h  hammer-on
| p  pull-off
| ~  vibrato
| +  harmonic
| x  Mute note
===============================================================================
            
Submit corrections

comments powered by Disqus
↑ Back to top | Queen Bass for Don T Stop Me Now. Lyrics for acoustic guitar and electric guitar. 1 Tablatures and chords are parodies/interpretations of the original songs. You may use it for private study, scholarship, research or language learning purposes only