» » »

Queen, Don T Stop Me Now Bass tabs (ver.1)

Artists:  A B C D E F G H I J K L M N O P Q R S T U V W X Y Z # 

Don T Stop Me Now Bass tabs (ver.1)

Queen Tabs
Rating:
0/5 (0 votes)
Don T Stop Me Now lessons Tabs too difficult? Try these video lessons and learn fast
                Don't stop me now by Queen

    Intro
G|---12/10---14---14\15---15/12--------|---------------------------|
D|-------------------------------------|---------------------------|
A|-------------------------------------|---------------------------|
E|-------------------------------------|---------------------------|

G|------------------------------------|
D|----------------2---------------2---|
A|----3--3--5--5------3--3--5--5------|
E|------------------------------------|

  Verse(X2)
G|-----------------------------------------------------------------|
D|-----------------------------------------------------------------|
A|-----------------------------------5-5-5-5-5-5-5-5-----------3---|
E|---1-1-1-1-1-1-1-1-5-5-5-5-5-5-5-5-----------------3-3-3-5-6-----|


G|---------------------------------------------------------------------------------|
D|---------------------------------------------------------------------------------|
A|---3--5--7--8--8-8-8-8--12-12-12-12-12-12---------------------------5-----4------|
E|------------------------------------------6-6-6-6-6-6-3-3-3-3-3-2-2---2-2---2-3--|

G|-------------------------------------------------------------------------------------|
D|-------------------------------------------------------------------------------------|
A|----------------------------5-----------4--------------------------------------------|
E|---(6)-3--3--3--3--2--2--2-----2--2--2-----3-3-3-3-3-3-3-3-5-6-6-7-7-8--8-8-8-8-8-8--|

Chorus
G|-------------------------------------------------------------------------------|
D|------------3-3-3-3-3-3-3-3----------------------------------------------------|
A|---------3----------------------------------0---0---0--3---0---1---0-----------|
E|---1--5---------------------3-3-3-3-3-3-3-3----------------------------3---1---|

G|------------------------------------------------------------------|
D|------------3-3-3-3-3-3-3-3------------------5---5---5-5-5-8-7-5--|
A|------0--3-------------------------------------5---5--------------|
E|---1------------------------3-3-3-3-3-3-3-3-----------------------|

G|----------------------------------------------------------------------------------------|
D|---------------8--7--5--8--7--5---------------------------------------------15--15--15--|
A|---3--3--5--5--------------------5--5--7--7--7--8--8--8--8--3--3--3---------------------|
E|----------------------------------------------------------------------------------------|

G|---------------|------------------|-------------------|
D|---------------|------------------|-------------------|
A|---Verse(X2)---|------------------|---Chorus----------|
E|---------------|------------------|-------------------|
            
Submit corrections

comments powered by Disqus
↑ Back to top | Queen Bass for Don T Stop Me Now. Lyrics for acoustic guitar and electric guitar. Tablatures and chords are parodies/interpretations of the original songs. You may use it for private study, scholarship, research or language learning purposes only