» » »

No Mas Bass tabs (ver.2)

Artists:  A B C D E F G H I J K L M N O P Q R S T U V W X Y Z # 

No Mas Bass tabs (ver.2)

Qbo
Rating:
0/5 (0 votes)

Hard to play? Try these video lessons and learn fast.
                intro
G.--------------------------------|
D.--------------------------------|
A 2222-2222-22-2222-2222----------| x2
D.---------------------------0----|

Bridge1
G.--------------------------|
D.--------------------------|
A 2222-2222-22-2222-2222----| x2
D.-----------------------0--|

G.-----------------------------------------|
D.-----------------------------------------|
A 22222200------------55555555-------------|
D.------------33333333------------55555555-|

Verso2
G.-------------------------------------------|
D.-------------------------------------------|
A 22222200------------55555555---------------|  x2
D.------------33333333------------55555555---|

Cuando el silencio
No deja ver la luz que hay en ti
Solo puedo pensar
Que ya no hay mas
Que ya no estas aquí

Coro1
G.--------------------------------|
D.--------------------------------|
A 2222-------5555-----------------|  x4
D.-------3333------------5555-----|

Por fin no tengo mas cadenas
No mas de ti
Al fin el cielo es eterno
No mas de ti

Bridge2
G.-----------------------------------------|
D.-----------------------------------------|
A 22222200------------55555555-------------|
D.------------33333333------------55555555-|

Verso 2
G.-------------------------------------------|
D.-------------------------------------------|
A 22222200------------55555555---------------|  x2
D.------------33333333------------55555555---|
Casi pudiste, meterte en mi
Y controlarme asi
Hipnotizándome
No lograras entrar de nuevo aquí

Bridge3
G.--------------------------|
D.--------------------------|
A 2222-2222-22-2222-2222----|
D.-----------------------0--|

G.--------------------------|
D.--------------------------|
A 2222-2222-22-2222-2222----|
D.-----------------------0--|

Coro2
G.---------------------------|
D.---------------------------|
A 2222-------5555------------|  x4
D.-------3333-------5555-----|

Por fin no tengo mas cadenas
No mas de ti
Al fin el cielo es eterno
No mas de ti

Bridge4
G.-------------------------|
D.-------------------------|
A 2222-2222-22-2222-2222---|
D.-----------------------0-|

G.--------------------------|
D.--------------------------|
A 2222-2222-22-2222-2222----|
D.-----------------------0--|

Bridge5
G.-----------------------------------------|
D.-----------------------------------------|
A 22222200------------55555555-------------|
D.------------33333333------------55555555-|
Al fin no mas
Al fin te vas
Al fin no mas
Al fin

G.-----------------------|
D.-----------------------|
A 2222-------5555--------|
D.-------3333-------5555-|

G.----------------------------|
D.----------------------------|
A 2222-------5555-------  x10-|
D.-------3333-------5555------|

Coro3
No mas de ti
Al fin el cielo es eterno
No mas de ti
Por fin no mas
Al fin te vas

No mas
No mas
No mas
No mas

fin
G.-----------------------------------|
D.-----------------------------------|
A 2222-------5555----------2222------|
D.-------3333-------5555---------555-|

bueno esa es la rola completa espero que les sirva
la saque con olo repetir la rola 2 veces

method  suerte banda
            
Hard to play? Try these video lessons and learn fast. | Correct




comments powered by Disqus
↑ Back to top | Tablatures and chords are parodies/interpretations of the original songs. You may use it for private study, scholarship, research or language learning purposes only