» » »

Qbo, No Mas Tabs (ver.2)

Artists:  A B C D E F G H I J K L M N O P Q R S T U V W X Y Z # 

No Mas Tabs (ver.2)

Qbo Tabs
 Rating:
3.4/5 (5 votes)
No Mas lessons Tabs too difficult? Try these video lessons and learn fast
1
                                                NO MAS (GTR TAB)
                               As recorded by qbo
                            (From the 2003 Album QBO)

Words and Music by qbo
Arranged by qbo

Gtr I (B E A D F# B) - 'Untitled'

    Bm
   4/4
    Gtr I
    PM--------------------------------------------------|     PM|
    S S S S S S S S S S S S S S S S   S S S S S S S S S S  E  S S  E
||----------------------------------|---------------------------------|
||o---------------------------------|---------------------------------|
||----------------------------------|---------------------------------|
||----------------------------------|---------------------------------|
||o---------------------------------|---------------------------------|
||--0-0-0-0-----0-0-0-0-----0-0-----|-0-0-0-0-----0-0-0-0-<4>-0-0-<4>-|


  PM--------------------------------------------------|
  S S S S S S S S S S S S S S S S   S S S S S S S S S S S S Q
|---------------------------------|-----------------------------||
|---------------------------------|----------------------------o||
|---------------------------------|-----------------------------||
|---------------------------------|-----------------------------||
|---------------------------------|----------------------------o||
|-0-0-0-0-----0-0-0-0-----0-0-----|-0-0-0-0-----0-0-0-0---------||


    Bm        Bm/Gb                   D                       A/C#
     W            Q.    E   +H          H       +Q.      E      +W
||-------------|--------------------|-----------------------|------------||
||o------------|-<7>----------------|-<12>----(<12>)--------|-----------o||
||--<5>--------|-------<7>-(<7>)----|------------------<12>-|-(<12>)-----||
||-------------|--------------------|-----------------------|------------||
||o------------|--------------------|-----------------------|-----------o||
||-------------|--------------------|-----------------------|------------||


    Bm   G      D    A      Bm     Gadd9    D      A/C#
    H    H      H    H      E E Q  E E Q    E E Q  E E Q
||------------|-----------|-----3------3--|-----3------3---||
||o-----------|-----------|-----3------3--|-----3------3--o||
||-------5----|------7----|---------------|----------------||
||--2----5----|-5----7----|---------------|--------0-0-----||
||o-2----3----|-5----5----|--------3-3----|---------------o||
||--0---------|-3---------|-0-0-----------|-3-3------------||


    Bm
                                                            ~
    S S S S S S S S S S S S S S S S   S S S S S S E S S S S Q
||----------------------------------|---------------------------||
||o---------------------------------|--------------------------o||
||----------------------------------|---------------------------||
||--2-2-2-2-----2-2-2-2-----2-2-----|-2-2-2-2-----2-2-2-2-2-----||
||o-2-2-2-2-----2-2-2-2-----2-2-----|-2-2-2-2-----2-2-2-2-2----o||
||--0-0-0-0-----0-0-0-0-----0-0-----|-0-0-0-0-----0-0-0-0-0-3---||


Duration Legend
---------------
W - whole; H - half; Q - quarter; E - 8th; S - 16th; T - 32nd; X - 64th; a - acciaccatura
+ - note tied to previous; . - note dotted; .. - note double dotted
Uncapitalized letters represent notes that are staccato (1/2 duration)
Irregular groupings are notated above the duration line
Duration letters will always appear directly above the note/fret number it represents the
duration for.  Duration letters with no fret number below them represent rests.  Multi-
bar rests are notated in the form Wxn, where n is the number of bars to rest for.  Low
melody durations appear below the staff

Tablature Legend
----------------
 h   - hammer-on
 p   - pull-off
 b   - bend
 pb  - pre-bend
 r   - bend release (if no number after the r, then release immediately)
 /\  - slide into or out of (from/to "nowhere")
 s   - legato slide
 S   - shift slide
  - natural harmonic
[n]  - artificial harmonic
n(n) - tapped harmonic
 ~   - vibrato
 tr  - trill
 T   - tap
 TP  - trem. picking
 PM  - palm muting
\n/  - tremolo bar dip; n = amount to dip
 \n  - tremolo bar down
 n/  - tremolo bar up
/n\  - tremolo bar inverted dip
 =   - hold bend; also acts as connecting device for hammers/pulls
 <>  - volume swell (louder/softer)
 x   - on rhythm slash represents muted slash
 o   - on rhythm slash represents single note slash

Misc Legend
-----------
 |  - bar
||  - double bar
||o - repeat start
o|| - repeat end
*|  - double bar (ending)
 :  - bar (freetime)
 $  - Segno
 &  - Coda
Tempo markers -  = BPM(8/16=s8/s16), where s8 = swing 8ths, s16 = swing 16ths
            
Submit corrections

comments powered by Disqus
↑ Back to top | Qbo Tabs for No Mas. Lyrics for acoustic guitar and electric guitar. 1 Tablatures and chords are parodies/interpretations of the original songs. You may use it for private study, scholarship, research or language learning purposes only