» » »

Qbo, Desvanecer Tabs (ver.3)

Artists:  A B C D E F G H I J K L M N O P Q R S T U V W X Y Z # 

Desvanecer Tabs (ver.3)

Qbo Tabs
 Rating:
4/5 (4 votes)
Desvanecer lessons Tabs too difficult? Try these video lessons and learn fast
1
                
En esta rola, la sexta cuerda está en RE (D).

Clave:
/ = deslizar
* = palm mute

e|---------------------------------------------------------|
B|---------------------------------------------------------|
G|-12-----------------11-----------------12----------------|
D|-12-9-9-9-99999999--11-9-9-9-99999999--12-9-9-9-99999999-|
A|-10-9-9-9-99999999--9--9-9-9-99999999--10-9-9-9-99999999-|
D|----9-9-9-99999999-----9-9-9-99999999-----9-9-9-99999999-|

  (Continuación)
e|-----------------------|
B|-----------------------|
G|-----------------------|
D|-----------------------|x2
A|-4/5-555/4-444/2-222-0-|
D|-4/5-555/4-444/2-222-0-|

   [Verso]
e|-----------------------------------|
B|-----------------------------------|
G|-----2-------------2-------------2-|
D|-----------------------------------|
A|-2-2-----------4-4-----------2-2---|
D|-----------------------------------|
  “Vienes hacia mi, lentamente”...

e|---------------------------------------------------------|
B|---------------------------------------------------------|
G|-12-----------------11-----------------12----------------|
D|-12-9-9-9-99999999--11-9-9-9-99999999--12-9-9-9-99999999-|
A|-10-9-9-9-99999999--9--9-9-9-99999999--10-9-9-9-99999999-|
D|----9-9-9-99999999-----9-9-9-99999999-----9-9-9-99999999-|

  (Continuacion)
e|----------------------------------------|
B|----------------------------------------|
G|-6/7-6/7-6/7-6/7-6/7-6/7-6/7------------|
D|----------------------------------------|
A|----------------------------------------|
D|----------------------------------------|

   [Verso]
e|-----------------------------------|
B|-----------------------------------|
G|-----2-------------2-------------2-|
D|-----------------------------------|
A|-2-2-----------4-4-----------2-2---|
D|-----------------------------------|
  “Ahora estás aquí, esperando”...

   [Coro] x2
e|--------------------------------------------------|
B|--------------------------------------------------|
G|---------------------------**----**----**----**---|
D|-9-99--------5-5555------7-77-7--44-44-44-44-44-4-|
A|-9-99--------5-5555-4-5--7-77-7--44-44-44-44-44-4-|
D|-9-99-11-12--5-5555------7-77-7--44-44-44-44-44-4-|
  “No extiendas, tus alas”...

e|------------------------|--------------------------------|
B|------------------------|--------------------------------|
G|-12-------11-------12---|-6/7-6/7-6/7-6/7-6/7-6/7-6/7----|
D|-12-9-----11-9-----12-9-|--------------------------------|
A|-10-9-----9--9-----10-9-|--------------------------------|
D|----9--------9--------9-|--------------------------------|
  “No te quiero ver desvanecer”

   [Verso]
e|-----------------------------------|
B|-----------------------------------|
G|-----2-------------2-------------2-|
D|-----------------------------------|
A|-2-2-----------4-4-----------2-2---|
D|-----------------------------------|
  “Quieres repetir, la pregunta”...

   [Coro] x2
e|------------------------------------------------|
B|------------------------------------------------|
G|-------------------------**----**----**----**---|
D|-9-99--------5-55------7-77-7--44-44-44-44-44-4-|
A|-9-99--------5-55-4-5--7-77-7--44-44-44-44-44-4-|
D|-9-99-11-12--5-55------7-77-7--44-44-44-44-44-4-|
  “No extiendas, tus alas”...

                                 |----x4-----|
e|-----------------------------|---------------|
B|-----------------------------|---------------|
G|------4-4-------4-4-------4--|---------------|
D|-*-*--2-2--*-*--2-2--*-*--2--|---------------|
A|-2-2--2-2--2-2--2-2--2-2--2--|-0/2-2-0-0-0/2-|
D|-----------------------------|---------------|

   [Coro] x4
e|------------------------------------------------|
B|------------------------------------------------|
G|-------------------------**----**----**----**---|
D|-9-99--------5-55------7-77-7--44-44-44-44-44-4-|
A|-9-99--------5-55-4-5--7-77-7--44-44-44-44-44-4-|
D|-9-99-11-12--5-55------7-77-7--44-44-44-44-44-4-|
  “No extiendas, tus alas”...

e|---------------------------------------------------------|
B|---------------------------------------------------------|
G|-12-----------------11-----------------12----------------|
D|-12-9-9-9-99999999--11-9-9-9-99999999--12-9-9-9-99999999-|
A|-10-9-9-9-99999999--9--9-9-9-99999999--10-9-9-9-99999999-|
D|----9-9-9-99999999-----9-9-9-99999999-----9-9-9-99999999-|

  (Continuación)
e|-----------------------|
B|-----------------------|
G|-----------------------|
D|-----------------------|x2
A|-4/5-555/4-444/2-222-0-|
D|-4/5-555/4-444/2-222-0-|
            
Submit corrections

comments powered by Disqus
↑ Back to top | Qbo Tabs for Desvanecer. Lyrics for acoustic guitar and electric guitar. 1 Tablatures and chords are parodies/interpretations of the original songs. You may use it for private study, scholarship, research or language learning purposes only