» » »

Desvanecer Tabs (ver.1)

Artists:  A B C D E F G H I J K L M N O P Q R S T U V W X Y Z # 

Desvanecer Tabs (ver.1)

Qbo
Rating:
5/5 (1 vote)

Hard to play? Try these video lessons and learn fast.
                
                                   DESVANECER
                               As recorded by qbo
                            (From the 2003 Album QBO)

Words by T.R.

Music by qbo
Arranged by qbo

Gtr I (B E A D F# B) - 'Untitled'

    Q=98
    G Bm                      F#m
   4/4
    Gtr I
    E E S S S S E E S S S S   E E S S S S E E S S S S
||--------------------------|-------------------------|
||o-------------------------|-------------------------|
||--5-----------------------|-4-----------------------|
||--5-2---2---2-2-2---2---2-|-4-2---2---2-2-2---2---2-|
||o-3-2---2---2-2-2---2---2-|-2-2---2---2-2-2---2---2-|
||----0---0---0-0-0---0---0-|---0---0---0-0-0---0---0-|


  G                         G       D/F#
                                                         ~~~
  E E S S S S E E S S S S   S S S S S S S S S S S S S S +E
|-------------------------|----------------------------------||
|-------------------------|---------------------------------o||
|-5-----------------------|-5-5---5-4-4---4------------------||
|-5-2---2---2-2-2---2---2-|-5---5---5---5--------------------||
|-3-2---2---2-2-2---2---2-|-3-------2-----------------------o||
|---0---0---0-0-0---0---0-|-----------------3h5-5-5-5-3-(3)--||


  Gmaj7add9+11                      F#m13
  S S S +S  +H.        +W           S S S +S  +H.        +W
|--------------------|------------|--------------------|--------|
|-----3-(3)-(3)------|-(3)--------|-----3-(3)-(3)------|-(3)----|
|-----0--------------|------------|-----0--------------|--------|
|---4----------------|------------|---4----------------|--------|
|-3------------------|------------|-2------------------|--------|
|--------------------|------------|--------------------|--------|


  Gmaj7add9+11                      Bm
  S S S +S  +H.        +W           Q.   E +E  E +E  E   +Q   E E +H
|--------------------|------------|--------------------|-----------------|
|-----3-(3)-(3)------|-(3)--------|------0-(0)---------|------0----------|
|-----0--------------|------------|------------0-(0)-2-|-(2)----0-(0)----|
|---4----------------|------------|-2------------------|-----------------|
|-3------------------|------------|-2------------------|-----------------|
|--------------------|------------|-0------------------|-----------------|


  G Bm                      F#Bm
  E E S S S S E E S S S S   E E S S S S E E S S S S
|-------------------------|-------------------------|
|-------------------------|-------------------------|
|-5-----------------------|-4-----------------------|
|-5-2---2---2-2-2---2---2-|-4-2---2---2-2-2---2---2-|
|-3-2---2---2-2-2---2---2-|-2-2---2---2-2-2---2---2-|
|---0---0---0-0-0---0---0-|---0---0---0-0-0---0---0-|


  G Bm
  E E S S S S E E S S S S    S S  S S  S S  S S  S S  S S  S S  S S
|-------------------------|------------------------------------------|
|-------------------------|----8----8----8----8----8----8----8----8--|
|-5-----------------------|-11---11---11---11---11---11---11---11----|
|-5-2---2---2-2-2---2---2-|------------------------------------------|
|-3-2---2---2-2-2---2---2-|------------------------------------------|
|---0---0---0-0-0---0---0-|------------------------------------------|


    Gmaj7add9+11
    S S S +S  +H.        +W
||---------------------|------------|
||o-----3-(3)-(3)------|-(3)--------|
||------0--------------|------------|
||----4----------------|------------|
||o-3------------------|------------|
||---------------------|------------|


  F#m13
  S S S +S  +H     +E  E   +Q.   E +H
|----------------------0-|-(0)-------------||
|-----3-(3)-(3)----(3)---|-------3-(3)----o||
|-----0------------------|-----------------||
|---4--------------------|-----------------||
|-2----------------------|----------------o||
|------------------------|-----------------||


    Bm               G
    H     E  E  Q    H     E  E  Q
||-----------------|----------------|
||o----------------|----------------|
||-------11S12-12--|-5----11S12-12--|
||--2--------------|-5--------------|
||o-2-----9S10-10--|-3-----9S10-10--|
||--0--------------|----------------|


  A                          F#m
  E +S  S E E +S  S E Q    E E Q  E E E E
|------------------------|-----------------||
|------------------------|----------------o||
|-7-(7)-7---7-(7)-7---7--|---4-4--4-4---4--||
|-7-(7)-7---7-(7)-7---7--|---4-4--4-4---4--||
|-5-(5)-5---5-(5)-5---5--|---2-2--2-2---2-o||
|------------------------|-----------------||


        Bm7add11
    PM|       PM|       PM|      PM|       PM|       PM|
    S S  E  E S S  E  E S S  E   S S  E  E S S  E  E S S  E
||-----------------------------|----------------------------||
||o-----10-10-----10-10-----10-|-----10-10-----10-10-----10o||
||-------7--7------7--7------7-|------7--7------7--7------7-||
||-------9--9------9--9------9-|------9--9------9--9------9-||
||o------7--7------7--7------7-|------7--7------7--7------7o||
||--0-0-------0-0-------0-0----|-0-0-------0-0-------0-0----||


      Bm7add11            Bm7     Bmadd9
  PM|       PM|       PM|     PM|       PM|       PM|
  S S  E  E S S  E  E S S E   S S  E  E S S  E  E S S E
|---------------------------|---------------------------|
|-----10-10-----10-10-----8-|------8--8------8--8-----7-|
|------7--7------7--7-----7-|-----11-11-----11-11-----7-|
|------9--9------9--9-----9-|------9--9------9--9-----9-|
|-7-7--7--7-7-7--7--7-7-7-7-|-7-7--7--7-7-7--7--7-7-7-7-|
|---------------------------|---------------------------|


  PM|       PM|       PM|     PM|       PM|       PM|
  S S  E  E S S  E  E S S E   S S  E  E S S  E  E S S E
|---------------------------|------------------------------|
|-----10-10-----10-10-----8-|------8--8------8--8-----7----|
|------7--7------7--7-----7-|-----11-11-----11-11-----7----|
|------9--9------9--9-----9-|------9--9------9--9-----9----|
|-7-7--7--7-7-7--7--7-7-7-7-|-7-7--7--7-7-7--7--7-7-7-7----|
|---------------------------|------------------------------|


      Bm7add11/E
  PM|       PM|       PM|      PM|     PM|     PM|
  S S  E  E S S  E  E S S  E   S S E E S S E E S S E
|----------------------------|-----------------------|
|-----10-10-----10-10-----10-|-----8-8-----7-8-----8-|
|------7--7------7--7------7-|-----7-7-----7-7-----7-|
|------9--9------9--9------9-|-----9-9-----9-9-----9-|
|-0-0-------0-0-------0-0----|-0-0-----0-0-----0-0---|
|----------------------------|-----------------------|


      Bmadd9                       A/C#
  PM|       PM|       PM|      PM|     PM|     PM|
  S S  E  E S S  E  E S S  E   S S E E S S E E S S E
|----------------------------|--------------------------|
|------8--8------8--8------8-|-----7-7-----7-7-----7----|
|-----11-11-----11-11-----11-|-----7-7-----7-7-----7----|
|------9--9------9--9------9-|-----7-7-----7-7-----7----|
|-7-7--7--7-7-7--7--7-7-7--7-|-9-9-----9-9-----9-9------|
|----------------------------|--------------------------|


  PM----------------------------|
  S S S S S S S S S S S S S S S S   S S S S S S S S S S S S Q
|---------------------------------|-------------------------------|
|---------------------------------|-------------------------------|
|---------------------------------|-------------------------------|
|---------------------------------|-------------------------------|
|-5-7-7-5-7-7-5-7-5-7-7-5-7-7-5-7-|-5-7-7-5-7-7-5-7-5-7-7-5-7\----|
|---------------------------------|-------------------------------|


    H     E  E  Q    H     E  E  Q
||-----------------|----------------|
||o----------------|----------------|
||-------11S12-12--|-5----11S12-12--|
||--2--------------|-5--------------|
||o-2-----9S10-10--|-3-----9S10-10--|
||--0--------------|----------------|


  E +S  S E E +S  S E Q    E E Q  E E E E
|------------------------|-----------------||
|------------------------|----------------o||
|-7-(7)-7---7-(7)-7---7--|---4-4--4-4---4--||
|-7-(7)-7---7-(7)-7---7--|---4-4--4-4---4--||
|-5-(5)-5---5-(5)-5---5--|---2-2--2-2---2-o||
|------------------------|-----------------||


    H     E  E  Q    H     E  E  Q
||-----------------|----------------|
||o----------------|----------------|
||-------11S12-12--|-5----11S12-12--|
||--2--------------|-5--------------|
||o-2-----9S10-10--|-3-----9S10-10--|
||--0--------------|----------------|


  E +S  S E E +S  S E Q    E E Q  E E E E
|------------------------|-----------------||
|------------------------|----------------o||
|-7-(7)-7---7-(7)-7---7--|---4-4--4-4---4--||
|-7-(7)-7---7-(7)-7---7--|---4-4--4-4---4--||
|-5-(5)-5---5-(5)-5---5--|---2-2--2-2---2-o||
|------------------------|-----------------||


    Q=98
    G Bm                      F#m
   4/4
    Gtr I
    E E S S S S E E S S S S   E E S S S S E E S S S S
||--------------------------|-------------------------|
||o-------------------------|-------------------------|
||--5-----------------------|-4-----------------------|
||--5-2---2---2-2-2---2---2-|-4-2---2---2-2-2---2---2-|
||o-3-2---2---2-2-2---2---2-|-2-2---2---2-2-2---2---2-|
||----0---0---0-0-0---0---0-|---0---0---0-0-0---0---0-|


  G                         G       D/F#
                                                         ~~~
  E E S S S S E E S S S S   S S S S S S S S S S S S S S +E
|-------------------------|----------------------------------||
|-------------------------|---------------------------------o||
|-5-----------------------|-5-5---5-4-4---4------------------||
|-5-2---2---2-2-2---2---2-|-5---5---5---5--------------------||
|-3-2---2---2-2-2---2---2-|-3-------2-----------------------o||
|---0---0---0-0-0---0---0-|-----------------3h5-5-5-5-3-(3)--||


Duration Legend
---------------
W - whole; H - half; Q - quarter; E - 8th; S - 16th; T - 32nd; X - 64th; a - acciaccatura
+ - note tied to previous; . - note dotted; .. - note double dotted
Uncapitalized letters represent notes that are staccato (1/2 duration)
Irregular groupings are notated above the duration line
Duration letters will always appear directly above the note/fret number it represents the
duration for.  Duration letters with no fret number below them represent rests.  Multi-
bar rests are notated in the form Wxn, where n is the number of bars to rest for.  Low
melody durations appear below the staff

Tablature Legend
----------------
 h   - hammer-on
 p   - pull-off
 b   - bend
 pb  - pre-bend
 r   - bend release (if no number after the r, then release immediately)
 /\  - slide into or out of (from/to "nowhere")
 s   - legato slide
 S   - shift slide
  - natural harmonic
[n]  - artificial harmonic
n(n) - tapped harmonic
 ~   - vibrato
 tr  - trill
 T   - tap
 TP  - trem. picking
 PM  - palm muting
\n/  - tremolo bar dip; n = amount to dip
 \n  - tremolo bar down
 n/  - tremolo bar up
/n\  - tremolo bar inverted dip
 =   - hold bend; also acts as connecting device for hammers/pulls
 <>  - volume swell (louder/softer)
 x   - on rhythm slash represents muted slash
 o   - on rhythm slash represents single note slash

Misc Legend
-----------
 |  - bar
||  - double bar
||o - repeat start
o|| - repeat end
*|  - double bar (ending)
 :  - bar (freetime)
 $  - Segno
 &  - Coda
Tempo markers -  = BPM(8/16=s8/s16), where s8 = swing 8ths, s16 = swing 16ths


***************************************************************************************
***************************************************************************************
            
Hard to play? Try these video lessons and learn fast. | Correct




comments powered by Disqus
↑ Back to top | Tablatures and chords are parodies/interpretations of the original songs. You may use it for private study, scholarship, research or language learning purposes only