» » »

Stickwitu Tabs (ver.1)

Artists:  A B C D E F G H I J K L M N O P Q R S T U V W X Y Z # 

Stickwitu Tabs (ver.1)

Pussycat Dolls
Rating:
5/5 (9 votes)

Hard to play? Try these video lessons and learn fast.
                Tuning: Standard


 INTRO AND VERSE:
           D                           Bm7
e|---------2------------5----------------2-----------------------------|
B|---------3------------5----------------3----2--3--5------------------|
G|---------2------------4----------------2-----------------------------|
D|---------0------------x----------------4-----------------------------|
A|----------------------4----------------4----0--2--4------------------|
E|---------------------------------------------------------------------|
               I don't wanna go another day

                     D                       Bm7           A
e|-------------------2----------5-------------2------------0-----------|
B|-------------------3----------5-------------3------------2-----------|
G|-------------------2----------4-------------2------------2-----------|
D|-------------------0----------x-------------4------------2-----------|
A|------------------------------4-------------2------------0-----------|
E|---------------------------------------------------------------------|
           so I'm telling you exactly what is on my mind

         D                             Bm7
e|---------2------------5---------------2------------------------------|
B|---------3------------5---------------3----------------------2-3-5---|
G|---------3------------4---------------2------------------------------|
D|---------0------------x---------------4------------------------------|
A|----------------------4---------------2----------------------0-2-4---|
E|---------------------------------------------------------------------|
 seems like everybody's breaking up and throwing their love away

              D                              Bm7             A
e|------------2-----------5-------------------2--------------0-----------|
B|------------3-----------5-------------------3--------------2-----------|
G|------------2-----------4-------------------2--------------2-----------|
D|------------0-----------x-------------------4--------------2-----------|
A|------------------------4-------------------2--------------0-----------|
E|-----------------------------------------------------------------------|
      but I know I got a good thing right here that's why I say  hey...


CHORUS
         D                          Bm7              A
e|-------2--------------5------------2---------------0---------------|
B|-------3--------------5------------3---------------2---------------|
G|-------2--------------4------------2---------------2---------------|
D|-------0--------------x------------4---------------2---------------|
A|----------------------4------------2---------------0---------------|
E|-------------------------------------------------------------------|
          nobody gonna love me better  I'm a  stickwitu forever
        you know how to appreciate me  I'm a  stickwitu my baby


         D                              Bm7                    A
e|-------2---------------5---------------2---------------------0---|
B|-------3---------------5---------------3---------------------2---|
G|-------2---------------4---------------2---------------------2---|
D|-------0---------------x---------------4---------------------2---|
A|-----------------------4---------------2---------------------0---|
E|-----------------------------------------------------------------|
           nobody gonna take me higher           I'm a stickwitu
          nobody ever made me feel this way      I'm a stickwitu


    verse, chorus...


LAST PART OF 2ND CHORUS:
    D                        Bm7        Ebm7            F#m
e|--2-------------------------2----------4---------------2----------|
B|--3-------------------------3----------5---------- ----2----------|
G|--2-------------------------2----------4---------------2----------|
D|--0-------------------------4----------6---------------4----------|
A|----------------------------2----------4---------------4----------|
E|-------------------------------------------------------2----------|
        ...you know how to appreciate me   I'm a stickwitu my baby

      D                                 Bm7           A
e|----2---------------5------------------2------------0-------------|
B|----3---------------5------------------3------------2-------------|
G|----2---------------4------------------2------------2-------------|
D|----0---------------x------------------4------------2-------------|
A|--------------------4------------------2------------0-------------|
E|------------------------------------------------------------------|
          nobody ever made me feel this way  I'm a stickwitu


BRIDGE:
           Dmaj7                 Dbm7               F#m
e|-----------2--------------------4------------------2-----------------|
B|-----------2--------------------5------------------2-----------------|
G|-----------2--------------------4------------------2-----------------|
D|-----------0--------------------6------------------4-----------------|
A|--------------------------------4------------------4-----------------|
E|--------------------------------x------------------2-----------------|
        and now            ain't nothing else I can need
       and now now I'm singing 'cause you're so so into me

           Dmaj7        Db7                           F#m
e|----------2------------4-----------------------------2-----------|
B|----------2------------6-----------------------------2-----------|
G|----------2------------4-----------------------------2-----------|
D|----------0------------6-----------------------------4-----------|
A|-----------------------4-----------------------------4-----------|
E|-----------------------x-----------------------------2-----------|

     I got you we'll be making love             endlessly


         Em7                   E11
e|--------2---------------------2--------------------------------------|
B|--------3---------------------3--------------------------------------|
G|--------2---------------------2--------------------------------------|
D|--------4---------------------2--------------------------------------|
A|--------2---------------------2--------------------------------------|
E|--------x---------------------0--------------------------------------|
     I'm with you  baby you're with me

 for the following part "so don't you worry about.."  use the same chords  for the verse..


chorus..
            
Hard to play? Try these video lessons and learn fast. | Correct




comments powered by Disqus
↑ Back to top | Tablatures and chords are parodies/interpretations of the original songs. You may use it for private study, scholarship, research or language learning purposes only