>
 >
Jai Ho

Jai Ho Guitar Tabs

Pussycat Dolls - Jai Ho chords, tabs, tablatures, lyrics

Guitar lessons | Add/correct | Request | Top 50 tabs Artists:  A B C D E F G H I J K L M N O P Q R S T U V W X Y Z 0-9

Jai Ho Guitar Tabs – Pussycat Dolls

CD, Sheet music, Poster

Do you like Jai Ho? Share with your friends now
ChordsTabsTabs v2Ukulele
jai ho (you are my destiny)
feel free to send me corrections....
------------------------------------------------------------------------------
THIS IS SAME AS THE FIRST TAB..
i tabbed it also (I just forgot to include my name)
------------------------------------------------------------------------------
I just added some more tabs
and edited my first version of tabs :D 
------------------------------------------------------------------------------

INTRO

e|--5---5--5--6---6--6--5--3-3---5--5-------|
B|--5---5--5--6---6--6--5--3-3---5--5-------|
G|--5---5--5--6---6--6--5--3-3---5--5-------|
D|--7---7--7--8---8--8--7--5-5---7--7-------|
A|--7---7--7--8---8--8--7--5-5---7--7-------|
E|--5---5--5--6---6--6--5--3-3---5--5-------|

(repeat 2x and every after 1 verse)

another kind of intro

Riff:

e|-------------------------------------|
B|-------------------------------------|
G|-------------------------------------|
D|--2--2--2--3--3--3--2--2--2--0-2---0-| x4
A|----0--0-----0--0-----0--0-----------|
E|-------------------------------------|





e------------------------------------------------------------------------|
B------------------------------------------------------------------------|
G------------------------88--------------3335557778-8_10---10_13--12-----|
D--5655655655655655---65----35566----------------------------------------|(2x)
A------------------------------------------------------------------------|
E------------------------------------------------------------------------|
I got shivers.... ( play it fast 8_10 and 10_13 take slur or slide there there )


e------------------------------------------------|
B------------------------------------------------|
G---577---9------7----7_12-----------------------|
D------------------------------------------------|
A------------------------------------------------|
E------------------------------------------------|
jai hooo! jai haoooo! (chorus)


e----------------------------------------------------------|
B------------------------------------------------5-8-7-5---|
G---7--7--77--7--7--9955----------5--5--5--5--5-5-------7-|  (play twice)
D----7--7--7--7--7--------------------5--5--5--5-----------|
A----------------------------------------------------------|
E----------------------------------------------------------|
catch me catch me catch me......blah blah i know its forever blah

(guitar 2)
verse chords ::::
Am
I got(I got) shivers(shivers) when you touch that way
     Dm                                                           
I'll make you hot, get what you got, I'll make you wanna say 
     Am
(jai ho, jai ho)
blah blah ((PATTERN:: Am - Dm - Am - Dm))

chorus chords

   C
Jai ho. You are the reason that I breathe
     G
Jai ho. You are the reason that I still believe
     Am7                        Gsus4 G
Jai ho. You are my destiny, jai ho... Oh oh oh oh
     C
Jai ho. No there is nothing that can stop us
     G
Jai ho. Nothing can ever come between us
     Am7                               Gsus4 G
Jai ho. So come and dance with me, jai ho... Oh



well thats it

----------------------------------------------------------------------------
jai ho (you are my destiny)
feel free to send me corrections....
------------------------------------------------------------------------------





Comments


Popular Pussycat Dolls tabs & chords
Happily Never After 1 Chords
I'm Done 1 Chords
When I Grow Up Chords
Stickwitu Tabs
Buttons Ukulele
Happily Ever After Ukulele
I Hate That Part Ukulele
Jai Ho Ukulele
Stick With You Ukulele
When I Grow Up Ukulele


Song lyrics



↑ Back to top | Tablatures and chords are parodies/interpretations of the original songs. You may use it for private study, scholarship, research or language learning purposes only
© 2014 AZChords.com Contact us | Privacy policy | DMCA | Add/correct tabs | Request tabs | Top 50 tabs