» » »

Getting There Is Getting By Tabs (ver.3)

Artists:  A B C D E F G H I J K L M N O P Q R S T U V W X Y Z # 

Getting There Is Getting By Tabs (ver.3)

Punchline
Rating:
5/5 (1 vote)

Hard to play? Try these video lessons and learn fast.
                -----------------------------------------------------------------------
             Punchline - Getting there is getting by
-----------------------------------------------------------------------

So here's the tab. Just listen for timing and muting 
and stuff like that. It's still incomplete. So if anyone knows
the other parts let me know!

e|--------------------------------------------------------------------|
B|--------------------------------------------------------------------|
G|--7---9999------7---9999-------7x-----------------------------------|
D|--7---xxxx------7---xxxx-------7x-----------------------------------|
A|--5---7777------5---7777-------5x-----------------------------------|
E|--------------------------------------------------------------------|

e|--------------------------------------------------------------------|
B|--------------------------------------------------------------------|
G|---------------9----------------------------------------------------|
D|---9--7--6--------7---9---7-----------------------------------------|
A|-----------------------------------7--------------------------------|
E|--------------------------------------------------------------------|

e|--------------------------------------------------------------------|
B|--------------------------------------------------------------------|
G|---7----------------------------------------------------------------|
D|---7-----4---6---7---9----------------------------------------------|
A|---5-----4---6---7---7----------------------------------------------|
E|---------2---4---5---7----------------------------------------------|
Strum that first power chord (D) a lot, then mute the last 4 chords twice

e|--------------------------------------------------------------------|
B|--------------------------------------------------------------------|
G|-----7-7-7-7-7------------------------------------------------------|
D|-----7-7-7-7-7---------2-2-2-2-2------------------------------------|
A|-----5-5-5-5-5---------2-2-2-2-2------------------------------------|
E|-----------------------0-0-0-0-0------------------------------------|


chorus
e|--------------------------------------------------------------------|
B|--------------------------------------------------------------------|
G|---7----------------------------------------------------------------|
D|---7----7----4----2-------------------------------------------------|
A|---5----7----4----2-------------------------------------------------|
E|--------5----2----0-------------------------------------------------|

e|--------------------------------------------------------------------|
B|--------------------------------------------------------------------|
G|--7---9999------7--9999--------7---9999--7---9999-------------------|
D|--7---xxxx------7---xxxx-------7---xxxx--7---xxxx-------------------|
A|--5---7777------5---7777-------5---7777--5---7777-------------------|
E|--------------------------------------------------------------------|

1st guitar
e|--------------------------------------------------------------------|
B|--------------------------------------------------------------------|
G|--------------------------------------------------------------------|
D|-----4--------------------------------------------------------------|
A|-----4--------------------------------------------------------------|
E|-----2--------------------------------------------------------------|
mute this chord the whole time

2nd guitar
e|--------------------------------------------------------------------|
B|--------------------------------------------------------------------|
G|--------------------------------------------------------------------|
D|-----4--44-----2----44---2------------------------------------------|
A|-----4--44-----2----44---2------------------------------------------|
E|-----2--22-----0----22---0-----------------------------------------|

e|--------------------------------------------------------------------|
B|--------------------------------------------------------------------|
G|---7----------------------------------------------------------------|
D|---7-----4---6---7---9----------------------------------------------|
A|---5-----4---6---7---9----------------------------------------------|
E|---------2---4---5---7----------------------------------------------|
Strum that first power chord (D) a lot, then mute the last 4 chords twice

e|--------------------------------------------------------------------|
B|--------------------------------------------------------------------|
G|-----7-7-7-7-7------------------------------------------------------|
D|-----7-7-7-7-7---------2-2-2-2-2------------------------------------|
A|-----5-5-5-5-5---------2-2-2-2-2------------------------------------|
E|-----------------------0-0-0-0-0------------------------------------|


chorus
e|--------------------------------------------------------------------|
B|--------------------------------------------------------------------|
G|---7----------------------------------------------------------------|
D|---7----7----4----2-------------------------------------------------|
A|---5----7----4----2-------------------------------------------------|
E|--------5----2----0-------------------------------------------------|
repeat twice

e|--------------------------------------------------------------------|
B|--------------------------------------------------------------------|
G|--------------------------------------------------------------------|
D|-----4--44-----2----44---2------4-4-4-4-----2-2-2-2-----------------|
A|-----4--44-----2----44---2------4-4-4-4-----2-2-2-2-----------------|
E|-----2--22-----0----22---0------2-2-2-2-----0-0-0-0-----------------|
repeat twice

e|--------------------------------------------------------------------|
B|--------------------------------------------------------------------|
G|-------------7------------------------------------------------------|
D|------2--4---7------------------------------------------------------|
A|------2--4---5------------------------------------------------------|
E|------0--2----------------------------------------------------------|
repeat twice

guitar 1
e|--------------------------------------------------------------------|
B|--------------------------------------------------------------------|
G|--------7-----------------------------------------------------------|
D|--------7-----------------------------------------------------------|
A|--------5-----------------------------------------------------------|
E|--------------------------------------------------------------------|
Listen for timing and strumming on this D Chord

guitar 2
e|--------------------------------------------------------------------|
B|--------------------------------------------------------------------|
G|-----99999999999999999999999999999999999999-------------------------|
D|-----xxxxxxxxxxxxxxxxxxxxxxxxxxxxxxxxxxxxxx-------------------------|
A|-----77777777777777777777777777777777777777-------------------------|
E|--------------------------------------------------------------------|

e|--------------------------------------------------------------------|
B|--------------------------------------------------------------------|
G|-----9/11--9---7---9----7---4---------------------------------------|
D|-----x/x---x---x---x----x---x---------------------------------------|
A|-----7/9---7---5---7----5---2---------------------------------------|
E|--------------------------------------------------------------------|

chorus
e|--------------------------------------------------------------------|
B|--------------------------------------------------------------------|
G|---7----------------------------------------------------------------|
D|---7----7----4----2-------------------------------------------------|
A|---5----7----4----2-------------------------------------------------|
E|--------5----2----0-------------------------------2~~~~-------------|
repeat 5 times and ends on and F# note
            
Hard to play? Try these video lessons and learn fast. | Correct




comments powered by Disqus
↑ Back to top | Tablatures and chords are parodies/interpretations of the original songs. You may use it for private study, scholarship, research or language learning purposes only