» » »

Punchline, Getting There Is Getting By Tabs (ver.1)

Artists:  A B C D E F G H I J K L M N O P Q R S T U V W X Y Z # 

Getting There Is Getting By Tabs (ver.1)

Punchline Tabs
Rating:
4/5 (2 votes)
Getting There Is Getting By lessons Tabs too difficult? Try these video lessons and learn fast
                Intro
e |--5~~--4~~---5~~--4~~-----|
B |--5~~--------5~~----------|
G |--x~~--------x~~-------7--|
D |--2~~--------2~~-------7--|
A |-----------------------5--|
E |--------------------------|

Guitar 1
e |------------------|
B |------------------|
G |--------7---------|
D |--2--4--7---2--4--|
A |--2--4--5---2--4--|
E |--0--2------0--2--|

Guitar 2
e |---5-5-5-5-5-4-4-4---|
B |---5-5-5-5-5-5-5-5---|
G |---------------------|
D |---------------------|
A |---------------------|
E |---------------------|


Pre Verse
e |-----------------|
b |-----------------|
g |--7-----7-----7--|
d |--7--7--7--7--7--|
a |--5--7--5--7--5--|
E |-----5-----5-----|


Pre Verse Guitar 1
Listen for strumming and timing
e |--------|
b |--------|
g |--7-----|
d |--7--7--|
a |--5--7--|
E |-----5--|

Pre Verse Guitar 2
e |--------------------------|-----------------------------------|
b |--------------------------|-----------------------------------|
g |-----------9--------------|-----------9-----------------------|
d |--9--7--6-----7--9--7-----|--6--7--9-----7--6-----6--7--6-----|
a |-----------------------7--|--------------------9-----------7--|
E |--------------------------|-----------------------------------|

Pre Verse Guitar 2 contd'
e |--------------------------------|---------------------------------|
b |--------------------------------|---------------------------------|
g |-----------------9--------------|-----------------9---------------|
d |--6--7--9--7--6-----6--7--6-----|--6--7--9--7--6-----6--7--9--11--|
a |-----------------------------7--|---------------------------------|
E |--------------------------------|---------------------------------|


Verse 
e |---------------|
b |---------------|
g |------------7--|
d |--x--4~~----7--|
a |--x--4~~----5--|
E |--x--2~~-------|


Verse contd'
e |-----------------------------------------------------|
b |-----------------------------------------------------|
g |----2-------2---------2--------2------------2---2~~--|
d |-----------------------------------------2------2~~--|
a |---------2-----2---4-----4--0-----0---0---------0~~--|
E |--2---2----------------------------------------------|


Chorus
e |--------------|
b |--------------|
g |--7-----------|
d |--7--7--4--2--|
a |--5--7--4--2--|
E |-----5--2--0--|


Pre Verse
e |-----------------------|
b |-----------------------|
g |--7-----7-----7-----7--|
d |--7--7--7--7--7--7--7--|
a |--5--7--5--7--5--7--5--|
E |-----5-----5-----5-----|

Verse 
e |---------------|
b |---------------|
g |------------7--|
d |--4-444-444-7--|
a |--4-444-444-5--|
E |--2-222-222----|


Pre Verse contd'
e |-----------------------------------------------------|
b |-----------------------------------------------------|
g |----2-------2---------2--------2------------2---2~~--|
d |-----------------------------------------2------2~~--|
a |---------2-----2---4-----4--0-----0---0---------0~~--|
E |--2---2----------------------------------------------|


Chorus x's 2
e |--------------|
b |--------------|
g |--7-----------|
d |--7--7--4--2--|
a |--5--7--4--2--|
E |-----5--2--0--|

Bridge 
e |-------------------------------------|
b |-------------------------------------|
g |----2-------2---------2--------2-----|
d |-------------------------------------|
a |---------2-----2---4-----4--0-----0--|
E |--2---2------------------------------|

Bridge contd'
e |-------|
b |-------|
g |---9---|
d |---9---|
a |---7---|
E |-------|
Listen for the strumming on this part


Bridge Guitar 1
e |---------------|
b |---------------|
g |------------7--|
d |--4-444-444-7--|
a |--4-444-444-5--|
E |--2-222-222----|
Listen for the strumming on this part


Bridge Guitar 2
e |-------------------------------------|
b |-------------------------------------|
g |----2-------2---------2--------2-----|
d |-------------------------------------|
a |---------2-----2---4-----4--0-----0--|
E |--2---2------------------------------|


Listen for timing
e |--9-------------------------|
b |-----5--5h7p5--4--5--5h7p5--|
g |----------------------------|
d |----------------------------|
a |----------------------------|
E |----------------------------|


Guitar 1 x's 4
e |-----------|
B |-----------|
G |--------7--|
D |--2--4--7--|
A |--2--4--5--|
E |--0--2-----|

Guitar 2 Listen for timing
e |--9-------------------------|
b |-----5--5h7p5--4--5--5h7p5--|
g |----------------------------|
d |----------------------------|
a |----------------------------|
E |----------------------------|



Guitar 1 x'2
e |-----------------------------------------|
b |-----------------------------------------|
g |--7-----7---7-----7----------------------|
d |--7--7--7---7--7--7---4--2--4---4--2--4--|
a |--5--7--5---5--7--5---4--2--4---4--2--4--|
E |-----5---------5------2--0--2---2--0--2--|


Guitar 2 Listen for timing here
e |--------|
b |--------|
g |--6-----|
d |-----9--|
a |--------|
E |--------|


Guitar 1
e |--------|
b |--------|
g |--x-7~--|
d |--x-7~--|
a |--x-5~--|
E |--------|

Guitar 2
e |----------------------------------------------|
b |----------------------------------------------|
g |--7--6--4----------------------------------2--|
d |-----------2--2/4\2--2----2--2--2--2--2h4-----|
a |----------------------------------------------|
E |----------------------------------------------|


Chorus x's 4
e |--------------|
b |--------------|
g |--7-----------|
d |--7--7--4--2--|
a |--5--7--4--2--|
E |-----5--2--0--|

Chorus x's 4
e |---------------------------------|
b |---------------------------------|
g |--7------------------------------|
d |--7--7--4--6--7--9--11--9--7--6--|
a |--5--7--4--6--7--9--11--9--7--6--|
E |-----5--2--4--5--7--9---7--5--4--|
Listen for timing on the 2nd guitar.


end
e |-------|
b |-------|
g |--7~~--|
d |--7~~--|
a |--5~~--|
E |-------|
            

comments powered by Disqus
↑ Back to top | Punchline Tabs for Getting There Is Getting By. Lyrics for acoustic guitar and electric guitar. Tablatures and chords are parodies/interpretations of the original songs. You may use it for private study, scholarship, research or language learning purposes only