>
 >
Don't Try This At Home

Don't Try This At Home Guitar Tabs

Punchline - Don't Try This At Home chords, tabs, tablatures, lyrics

Guitar lessons | Add/correct | Request | Top 50 tabs Artists:  A B C D E F G H I J K L M N O P Q R S T U V W X Y Z 0-9

Don't Try This At Home Guitar Tabs – Punchline

CD, Sheet music, Poster

Do you like Don't Try This At Home? Share with your friends now
Bass TabsTabs
Gtr I (E A D G B E) - 'Dist'
Gtr II (E A D G B E) - 'Clean'
Gtr III (E A D G B E) - 'Overdrive'
Gtr IV (E A D G B E) - 'Dist2'
Gtr V (E A D G B E) - 'Piano'
Gtr VI (E A D G B E) - 'Strings'

Intro
Q=140
B5 E5
4/4
Gtr I
E E E E E E E E E E E E E E E E
||-----------------------|------------------------------|
||o----------------------|------------------------------|
||---4--4-4--4-4--4-4--4-|------------------------------|
||---4--4-4--4-4--4-4--4-|---2---2--2--2--2--2--2---2---|
||o--2--2-2--2-2--2-2--2-|---2---2--2--2--2--2--2---2---|
||-----------------------|---0---0--0--0--0--0--0---0---|
|
| Gtr III
| ~~ ~~~~~~~~~ ~~~~~~~~
| E E E Q E E E +E E E E E E E +E
||--------9-11------9-11-|-(11)-------14-14-------------|
||o----12--------12------|------12-12-------12-12-(12)\-|
||-----------------------|------------------------------|
||--/9-------------------|------------------------------|
||o----------------------|------------------------------|
||-----------------------|------------------------------|


G#5 E5
E E E E E E E E E E E E E E E E
|---------------------|-----------------------||
|---------------------|----------------------o||
|---------------------|-----------------------||
|-6-6--6-6-6---6--6-6-|--2--2-2-2-2-2--2---2--||
|-6-6--6-6-6---6--6-6-|--2--2-2-2-2-2--2---2-o||
|-4-4--4-4-4---4--4-4-|--0--0-0-0-0-0--0---0--||
|
| ~~~~~~~~
| E E E Q E E E +H. +Q
|-9-9-11-9------------|-----------------------||
|------------/12-11-9-|-(9)-----------(9)\---o||
|---------------------|-----------------------||
|---------------------|-----------------------||
|---------------------|----------------------o||
|---------------------|-----------------------||


Verse
B5/F# B5 E5 B/Eb B5/F# E5
Gtr II
E E E E Q E E Q E E E E E E E E E E Q E E +E E E E E E E E
|----------------|----------------|----------------|-------------------|
|---0-0-0-0----0-|-0--------------|---0-0-0-0----0-|-(0)---------------|
|---4-4-4-4----4-|-4----9-9-9-9---|---4-4-4-4----4-|-(4)-4-4S9-9-9-9-9-|
|---4-4-4-4----4-|-4----9-9-9-9-9-|---4-4-4-4----2-|-(2)-x-x-x-x-x-x-x-|
|---x-x-x-x----2-|-2----7-7-7-7-6-|---x-x-x-x----2-|-(2)-2-2S7-7-7-7-7-|
|---2-2-4-4------|----------------|---2-2-4-4----0-|-(0)-0-0-0-0-0-0-0-|
|
| Gtr III
| ~
| W W W E E E E E E E E
|----------------|----------------|----------------|-------------------|
|----------------|----------------|----------------|-------------------|
|----------------|----------------|----------------|-----8-8-9-8S6S4-6-|
|----------------|----------------|----------------|-----9-9-9-9-------|
|----------------|----------------|----------------|-------------------|
|----------------|----------------|----------------|-------------------|


B5/F# B5 E5 B/Eb
E E E E Q E E Q +E E Q E E
|-------------------|-------------------|
|-----0-0-0-0-----0-|-0---(0)-----------|
|-----4-4-4-4-----4-|-4---(4)s9-9-------|
|-----4-4-4-4-----4-|-4---(4)s9-9---9-9-|
|-----x-x-x-x-----2-|-2---(2)s7-7---7-6-|
|-----2-2-4-4-------|-------------------|
|
| ~~~
| +E E E E E E E E E E E E E E Q
|-----7-7-6-6-6-6-7-|-7---------0-------|
|-----7-7-7-7-7-7-7-|-7---------5---0---|
|-(6)---------------|---8--6--4-6---4---|
|-------------------|---------------4---|
|-------------------|-------------------|
|-------------------|-------------------|


B5/F# E5
Gtr I
E E E E Q E E +H +E S S S S S S
|-----------------|--------------------------------------|
|---0-0-0-0---0-0-|-(0)----(0)---------------------------|
|---4-4-4-4---4-4-|-(4)----(4)---------------------------|
|---4-4-4-4---2-2-|-(2)----(2)-<5>-<5>-<5>-<5>-<5>-<5>---|
|---x-x-x-x---2-2-|-(2)----(2)---------------------------|
|---2-2-4-4---0-0-|-(0)----(0)---------------------------|
|
| ~~~~~~~~
| E E E E E Q E +W
|-----------------|--------------------------------------|
|-----------------|--------------------------------------|
|---8-6-4-6-------|--------------------------------------|
|-----------4---6-|-(6)----------------------------------|
|-----------------|--------------------------------------|
|-----------------|--------------------------------------|


B5/F# B5 E5 B/Eb B5/F# E5
Gtr I
E E E E Q E E Q E E E E E E E E E E Q E E +E E E E E E E E
|-----------------|-----------------|-----------------|-------------------|
|---0-0-0-0-----0-|-0---------------|---0-0-0-0-----0-|-(0)---------------|
|---4-4-4-4-----4-|-4-----9-9-9-9---|---4-4-4-4-----4-|-(4)-4-4-4-4-6-6-6-|
|---4-4-4-4-----4-|-4-----9-9-9-9-9-|---4-4-4-4-----2-|-(2)-x-x-x-x-x-x-x-|
|---x-x-x-x-----2-|-2-----7-7-7-7-6-|---x-x-x-x-----2-|-(2)-2-2-2-2-4-4-4-|
|---2-2-4-4-------|-----------------|---2-2-4-4-----0-|-(0)-0-0-0-0-0-0-0-|
|
| ~
| E E E E E E E E E E E E E E Q E E E E E E E E E E E E E E E E
|---7-7-6-6-6-6-7-|-7-------0-------|---7-7-6-6-6-6-7-|--7--7-7-6-4-------|
|---7-7-7-7-7-7-7-|-7-------5---0---|---7-7-7-7-7-7-7-|--7----------7-5-7-|
|-----------------|---8-6-4-6---4---|-----------------|-------------------|
|-----------------|-------------4---|-----------------|-------------------|
|-----------------|-----------------|-----------------|-------------------|
|-----------------|-----------------|-----------------|-------------------|


B5/F# B5 E5 B5/F# E5
E E E E Q E E Q E E E E E E E E E E E E E E
|-------------------|-----------------|--------------------|
|-----0-0-0-0-----0-|-0---------------|-----0-0-0-0-0---0--|
|-----4-4-4-4-----4-|-4-----9-9-9-9---|-----4-4-4-4-4---4--|
|-----4-4-4-4-----4-|-4-----9-9-9-9-9-|-----4-4-4-4-4---2--|
|-----x-x-x-x-----2-|-2-----7-7-7-7-6-|-----x-x-x-x-x---2--|
|-----2-2-4-4-------|-----------------|-----2-2-4-4-4---0--|
|
| ~~~ ~
| +E E E E E E E E E E E E E E E E S S E E Q Q E
|-----7-7-6-6-6-6-7-|-7---------------|--------------------|
|-(7)-7-7-7-7-7-7-7-|-7---------------|--------------------|
|-------------------|-----8-9-8-6---6-|-8h9p8-6-4----------|
|-------------------|---9---------9---|-------------4---6--|
|-------------------|-----------------|--------------------|
|-------------------|-----------------|--------------------|


PM----------|
+E E E E E E E E E E H.
|-------------------|-----------||
|-(0)---------------|-----------||
|-(4)---------------|-----------||
|-(2)---------------|-2---------||
|-(2)-2-2-2-2-2-2-2-|-2---------||
|-(0)-0-0-0-0-0-0-0-|-0---------||
|
| ~~~
| +W W
|-------------------|-----------||
|-------------------|-----------||
|-------------------|-----------||
|-(6)---------------|-----------||
|-------------------|-----------||
|-------------------|-----------||


Chorus
$
$$
G#5 E5 B5
E E E E E E E E E E E E E E E E E E E E E E E E E E E E E E E E
|-----------------|-----------------|------------------|--------------------|
|-----------------|-----------------|------------------|--------------------|
|-----------------|-----------------|-4--4-4-4-4-4-4-4-|--4-4-4-4-4-4--4--4-|
|-6-6-6-6-6-6-6-6-|-2-2-2-2-2-2-2-2-|-4--4-4-4-4-4-4-4-|--4-4-4-4-4-4--4--4-|
|-6-6-6-6-6-6-6-6-|-2-2-2-2-2-2-2-2-|-2--2-2-2-2-2-2-2-|--2-2-2-2-2-2--2--2-|
|-4-4-4-4-4-4-4-4-|-0-0-0-0-0-0-0-0-|------------------|--------------------|
|
| Gtr IV
| W W H. E E Q Q E E +Q
|-----------------|-----------------|------------------|--------------------|
|-----------------|-----------------|------------------|--------------------|
|-----------------|-----------------|--------------4-6-|-/8---6-------------|
|-----------------|-----------------|--------------x-x-|--x---x---9-8-(8)---|
|-----------------|-----------------|--------------2-4-|-/6---4---x-x-------|
|-----------------|-----------------|------------------|----------7-6-(6)---|


G#5 E5 B5 F#5
E E E E E E E E E E E E E E E E E E E E E E E E E E E E E E E E
|-----------------|-----------------|-------------------|---------------------|
|-----------------|-----------------|-------------------|---------------------|
|-----------------|-----------------|-4-4-4-4-4-4-4-4---|---------------------|
|-6-6-6-6-6-6-6-6-|-2-2-2-2-2-2-2-2-|-4-4-4-4-4-4-4-4---|-----4-4-4-4-4--4-4--|
|-6-6-6-6-6-6-6-6-|-2-2-2-2-2-2-2-2-|-2-2-2-2-2-2-2-2---|-----4-4-4-4-4--4-4--|
|-4-4-4-4-4-4-4-4-|-0-0-0-0-0-0-0-0-|-------------------|-----2-2-2-2-2--2-2--|
|
| W W H E E E S S +E E E E E Q.
|-----------------|-----------------|-------------------|---------------------|
|-----------------|-----------------|-------------------|---------------------|
|-----------------|-----------------|---------4-6-8-6s8-|-(8)-6-4-6-8-6-------|
|-6---------------|-----------------|---------x-x-x-x-x-|-----x-x-x-x-x-------|
|-x---------------|-----------------|---------2-4-6-4s6-|-(6)-4-2-4-6-4-------|
|-4---------------|-----------------|-------------------|---------------------|


G#5 E5
E E E E E E E E E E E E E E E E
|--------------------------|-------------------------|
|--------------------------|-------------------------|
|--------------------------|-------------------------|
|---6--6--6--6--6--6--6--6-|--2--2--2--2--2--2--2--2-|
|---6--6--6--6--6--6--6--6-|--2--2--2--2--2--2--2--2-|
|---4--4--4--4--4--4--4--4-|--0--0--0--0--0--0--0--0-|
|
| W W
|--------------------------|-------------------------|
|--------------------------|-------------------------|
|--------------------------|-------------------------|
|--------------------------|-------------------------|
|--------------------------|-------------------------|
|--------------------------|-------------------------|
|
| Gtr III
| E E E E E E E E E E E E E E E E
|--------------------------|-------------------------|
|-/12-12-------12-12-------|-12-12-------12-12-------|
|--------11-11-------11-11-|-------11-11-------11-11-|
|--------------------------|-------------------------|
|--------------------------|-------------------------|
|--------------------------|-------------------------|


B5 F#5
E E E E E E E E E E E E E E E E
|--------------------------|--------------------------|
|--------------------------|--------------------------|
|--4---4--4--4--4--4--4--4-|--------------------------|
|--4---4--4--4--4--4--4--4-|--4--4--4--4--4--4--4---4-|
|--2---2--2--2--2--2--2--2-|--4--4--4--4--4--4--4---4-|
|--------------------------|--2--2--2--2--2--2--2---2-|
|
| H. E E Q Q E E +Q
|--------------------------|--------------------------|
|--------------------------|--------------------------|
|---------------------4--6-|-/8-----6-----------------|
|---------------------x--x-|--x-----x-----9--8-(8)----|
|---------------------2--4-|-/6-----4-----x--x--------|
|--------------------------|--------------7--6-(6)----|
|
| E E E E E E E E E E E E E E E E
|--------------------------|--------------------------|
|-12--12-------12-12-------|-12-12-------14-14--------|
|--------11-11-------11-11-|-------11-11-------11--11-|
|--------------------------|--------------------------|
|--------------------------|--------------------------|
|--------------------------|--------------------------|


To Coda
To Coda
G#5 G5
E E E E E E E E E E H.
|-------------------------|-------------||
|-------------------------|-------------||
|-------------------------|-------------||
|--6--6--6--6--6--6--6--6-|--5----------||
|--6--6--6--6--6--6--6--6-|--5----------||
|--4--4--4--4--4--4--4--4-|--3----------||
|
| E E E E E E E E E E H.
|-------------------------|-------------||
|-------------------------|-------------||
|--8--8--8--8--8--8--8--8-|--7----------||
|--x--x--x--x--x--x--x--x-|--x----------||
|--6--6--6--6--6--6--6--6-|--5----------||
|-------------------------|-------------||
|
| E E E E E E E E E E H.
|-------------------------|-------------||
|-12-12-------12-12-------|-14----------||
|-------11-11-------11-11-|-------------||
|-------------------------|-------------||
|-------------------------|-------------||
|-------------------------|-------------||


B5/F# B5 E5 B/Eb
E E E E Q E E E E E E E E E E
|-----------------------|-------------------------|
|-----0--0--0--0------0-|---0---0-----------------|
|-----4--4--4--4------4-|---4---4-----9--9-9--9---|
|-----4--4--4--4------4-|---4---4-----9--9-9--9-9-|
|-----x--x--x--x------2-|---2---2-----7--7-7--7-6-|
|-----2--2--4--4--------|-------------------------|
|
| ~~ ~~~~~~~~~ ~~~~~~~
| E E E E Q E E +E E E E Q Q
|-----------------------|-------------------------|
|---/12-12-11-----11-12-|-(12)--------------------|
|-------------13--------|-------------------------|
|-----------------------|------13-13-14-13---11---|
|-----------------------|-------------------------|
|-----------------------|-------------------------|


B5/F#
E E E E E E E E E E E E E E Q
|-----------------------------|------------------------------||
|---------0--0--0--0--0-----0-|---0-----0--0---0--0----------||
|---------4--4--4--4--4-----4-|---4-----4--4---4--4---6-11\--||
|---------4--4--4--4--4-----4-|---4-----4--2---2--4---x--x---||
|---------x--x--x--x--x-----2-|---2-----2--2---2--2---4--9\--||
|---------2--2--4--4--4-----0-|---0-----0--0---0--0----------||
|
| +E E E E E E E E +E E E E E E Q
|-----------------------------|-----------14-----16-----19\--||
|-------/12-12-11-------11-12-|-(12)\-/16----/17----/19------||
|-----------------13-13-------|------------------------------||
|-(11)\-----------------------|------------------------------||
|-----------------------------|------------------------------||
|-----------------------------|------------------------------||


Verse 2
B5/F# B5 E5 B/Eb B5/F# E5
Gtr I
PM--|
Q E E E E E E Q E E E E E E E E E E Q E E +E E E E E E E E
|----------------|-----------------|-----------------|--------------------|
|----0-0-0-0---0-|-0---------------|---0-0-0-0-----0-|-(0)--0-0-0-0-------|
|----4-4-4-4---4-|-4-----9-9-9-9---|---4-4-4-4-----4-|-(4)--4-4-4-4-------|
|----4-4-4-4---4-|-4-----9-9-9-9-9-|---4-4-4-4-----2-|-(2)--2-2-2-2-2-2-2-|
|----x-x-x-x---2-|-2-----7-7-7-7-6-|---x-x-x-x-----2-|-(2)--2-2-2-2-2-2-2-|
|----2-4-4-4-----|-----------------|---2-2-4-4-----0-|-(0)--0-0-0-0-0-0-0-|
|
| ~
| Q E E E E E E E E E E E E E E E E E E E E E E +E E E E E E E E
|----7-6-6-6-6-7-|-7---------------|---6-6-6-6-6-6-7-|-(7)-/9-7-6---------|
|----7-7-7-7-7-7-|-7---------------|---7-7-7-7-7-7-7-|-(7)--------9-7-----|
|----------------|---8---9-8-------|-----------------|----------------9---|
|----------------|-----9-----9-----|-----------------|------------------9-|
|----------------|-------------9-9-|-----------------|--------------------|
|----------------|-----------------|-----------------|--------------------|


B5/F# B5 E5 B5/F# E5
E E E E Q E E Q E E E E E E E E E E E E E E
|-------------------|-----------------|-------------------|
|-----0-0-0-0-----0-|-0---------------|-----0-0-0-0-0---0-|
|-----4-4-4-4-----4-|-4-----9-9-9-9---|-----4-4-4-4-4---4-|
|-----4-4-4-4-----4-|-4-----9-9-9-9-9-|-----4-4-4-4-4---2-|
|-----x-x-x-x-----2-|-2-----7-7-7-7-6-|-----x-x-x-x-x---2-|
|-----2-2-4-4-------|-----------------|-----2-2-4-4-4---0-|
|
| ~~~ ~
| +E E E E E E E E E E E E E E E E E E E Q Q E
|-----7-7-6-6-6-6-7-|-7---------------|-------------------|
|-----7-7-7-7-7-7-7-|-7---------------|-------------------|
|-------------------|-----8-9-8-6---6-|-[9]p8-6-4---------|
|-(9)---------------|---9---------9---|-------------4---6-|
|-------------------|-----------------|-------------------|
|-------------------|-----------------|-------------------|


D.S. al Coda
+E E E E E E E E Q Q Q Q
|-------------------|-------------||
|-(0)-0-0-0-0-0-0-0-|-------------||
|-(4)-4-4-4-4-4-4-4-|-------------||
|-(2)-2-2-2-2-2-2-2-|-2--2--2-----||
|-(2)-2-2-2-2-2-2-2-|-2--2--2-----||
|-(0)-0-0-0-0-0-0-0-|-0--0--0-----||
|
| ~~~
| +W W
|-------------------|-------------||
|-------------------|-------------||
|-------------------|-------------||
|-(6)---------------|-------------||
|-------------------|-------------||
|-------------------|-------------||


Guitar Solo
&
G5 A5 E5
Gtrs I, IV
E E E E E E E E E E E E E E E E
|-------------------------------|-----------------------------------|
|-------------------------------|-----------------------------------|
|--------------------4-------4--|---4----4---4-----4--------4-4-4-4-|
|--5--5--5--7--7--7--2-------2--|---2----2---2-----2--------2-2-2-2-|
|--5--5--5--7--7--7--2-------2--|---2----2---2-----2--------2-2-2-2-|
|--3--3--3--5--5--5--0-------0--|---0----0---0-----0--------0-0-0-0-|
|
| Gtr III
| ~~
| E E E E E E E +E +E +E S S S S a H
|-------------------------------|-----------------------------------|
|-------------------15b17==(15)-|-(15)r(15)-12h15p12p11-11s12-------|
|-------14-16-------------------|-----------------------------------|
|-------------14----------------|-----------------------------------|
|----14----------12-------------|-----------------------------------|
|-15----------------------------|-----------------------------------|


G5 A5 E5
E E E E E E E E E E E E E E E E
|--------------------------------------------------|----------------------------|
|--------------------------------------------------|----------------------------|
|---------------------------------------4-------4--|---4---4-4--4-----4-4-4-4---|
|--5-----5-----5-----7---7-------7------2-------2--|---2---2-2--2-----2-2-2-2---|
|--5-----5-----5-----7---7-------7------2-------2--|---2---2-2--2-----2-2-2-2---|
|--3-----3-----3-----5---5-------5------0-------0--|---0---0-0--0-----0-0-0-0---|
|
| ~~~~~~~~~~~
| S S S S S S E +E +S S E +E +Q. E a H
|-------------------14-(14)b15r(14)p12-------------|----------------------------|
|-------------12-15--------------------15b17==(15)-|-(15)r-----15-15p12---------|
|----------12--------------------------------------|----------------------------|
|-------12-----------------------------------------|----------------------------|
|----14--------------------------------------------|----------------------------|
|-15-----------------------------------------------|----------------------------|


G5 A5 E5
E E E E E E E E E E E E E E E E
|-----------------------|--------------------------|
|-----------------------|--------------------------|
|------------------4--4-|---4---4--4--4--4--4--4-4-|
|-5--5--5--7-7--7--2--2-|---2---2--2--2--2--2--2-2-|
|-5--5--5--7-7--7--2--2-|---2---2--2--2--2--2--2-2-|
|-3--3--3--5-5--5--0--0-|---0---0--0--0--0--0--0-0-|
|
| ~~ ~~~~~~~~~
| E E E Q E E E +E E E E E E Q
|-----------------------|--------------------------|
|---------12---------12-|-(12)-------15-15---------|
|---12-14------12-14----|------12-12-------12-14---|
|-----------------------|--------------------------|
|-----------------------|--------------------------|
|-----------------------|--------------------------|


G5 A5 E5
Q. Q. Q +E E E E E E E E
|------------------------------------|-------------------------||
|------------------------------------|-------------------------||
|------------------------4-----------|--(4)-4-4---4-4---4------||
|--5-----------7---------2-----------|--(2)-2-2---2-2---2------||
|--5-----------7---------2-----------|--(2)-2-2---2-2---2------||
|--3-----------5---------0-----------|--(0)-0-0---0-0---0------||
|
| E E E E E E E E +H. +Q
|----------12------------------------|-------------------------||
|-------12----12--15-12-15b17-15b17==|=(15)-----------(15)r\---||
|-14b16------------------------------|-------------------------||
|------------------------------------|-------------------------||
|------------------------------------|-------------------------||
|------------------------------------|-------------------------||


Verse 3
F#5 B5/Ab B5 E5 F#5 B5/Ab B5/E
Gtr II
E E E E E E E E E E E E E E E E E E E E E E E E E E E E E E E E
|-----------------|-----------------|-----------------|-----------------|
|-----------------|-----------------|-----------------|-----------------|
|-----------------|-----4-----------|-----------------|-----------------|
|-----------4-----|---4-------2-----|-----4-----4-----|-----4-----4-----|
|---4-----2-----2-|-2-------2-----2-|---4-----2-----2-|---2-----2-----2-|
|-2---2-4-----4---|-------0-----0---|-2-----4-----4---|-0-----0-----0---|


F#5 B5/Ab B5 E5 F#5 B5/Ab B5/E
E E E E E E E E E E E E E E E E E E E E E E E E W
|-----------------|-----------------|-----------------|------||
|-----------------|-----------------|-----------------|------||
|-----------------|-----4-----------|-----------------|------||
|-----4-----4-----|---4-------2-----|-----4-----4-----|-4----||
|---4-----2-----2-|-2-------2-----2-|---4-----2-----2-|-2----||
|-2-----4-----4---|-------0-----0---|-2-----4-----4---|-0----||


Inspirational Chorus
G#m E
Gtr V
H. E E H. E E
|-19-------------19-23-|-16-------------14-12-|
|-16-------------------|-17-------------------|
|----------------------|----------------------|
|-------6-8-(8)---9----|-------2-4-(4)---6----|
|-----6----------------|-----2----------------|
|--4-------------------|--0-------------------|
| E E E E +Q Q E E E E +Q Q
|
| Gtr VI
| W W
|----------------------|----------------------|
|----------------------|----------------------|
|--8-------------------|--6-------------------|
|----------------------|----------------------|
|----------------------|----------------------|
|----------------------|----------------------|


B
W +H Q E E
|-11---------------|-(11)-------^19---18-14-|
|-12---------------|-(12)-------^16---14-12-|
|------4-----4-----|---4------4--------4----|
|----4-----4-----4-|--------4-------4-------|
|--2-----2-----2---|------2-------2---------|
|------------------|------------------------|
| E E E E E E E E E E E E E E Q
|
| <
| W +W
|--7---------------|--(7)-------------------|
|--7---------------|--(7)-------------------|
|--8---------------|--(8)-------------------|
|--9---------------|--(9)-------------------|
|------------------|------------------------|
|------------------|------------------------|


G#m E
+H. E E H. E E
|-(14)------------16-18-|-16-------------14-12-|
|-(12)------------------|-17-------------------|
|-----------------------|----------------------|
|--------6-8-(8)---9----|-------2-4-(4)---6----|
|------6----------------|-----2----------------|
|---4-------------------|--0-------------------|
| E E E E +Q Q E E E E +Q Q
|
| < <
| W W
|---7-------------------|-12-------------------|
|---9-------------------|-12-------------------|
|---8-------------------|--9-------------------|
|---9-------------------|--9-------------------|
|-----------------------|----------------------|
|-----------------------|----------------------|


D.S.S. al Dbl. Coda
B
<
W +H Q E E
|-11---------------|-(11)-------19---18-14-||
|-12---------------|-(12)-------16---14-12-||
|------4-----4-----|---4------4-------4----||
|----4-----4-----4-|--------4------4-------||
|--2-----2-----2---|------2------2---------||
|------------------|-----------------------||
| E E E E E E E E E E E E E E Q
|
| <
| W +W
|-14---------------|-(14)------------------||
|-14---------------|-(14)------------------||
|-11---------------|-(11)------------------||
|-11---------------|-(11)------------------||
|------------------|-----------------------||
|------------------|-----------------------||


Chorus 4
&&
G#5 E5 B5
Gtr I
E E E E E E E E E E E E E E E E E E E E E E E E E E E E E E E E
|-----------------|-----------------|------------------|--------------------|
|-----------------|-----------------|------------------|--------------------|
|-----------------|-----------------|-4--4-4-4-4-4-4-4-|--4-4-4-4-4-4--4--4-|
|-6-6-6-6-6-6-6-6-|-2-2-2-2-2-2-2-2-|-4--4-4-4-4-4-4-4-|--4-4-4-4-4-4--4--4-|
|-6-6-6-6-6-6-6-6-|-2-2-2-2-2-2-2-2-|-2--2-2-2-2-2-2-2-|--2-2-2-2-2-2--2--2-|
|-4-4-4-4-4-4-4-4-|-0-0-0-0-0-0-0-0-|------------------|--------------------|
|
| Gtr IV
| W W H. E E Q Q E E +Q
|-----------------|-----------------|------------------|--------------------|
|-----------------|-----------------|------------------|--------------------|
|-----------------|-----------------|--------------4-6-|-/8---6-------------|
|-----------------|-----------------|--------------x-x-|--x---x---9-8-(8)---|
|-----------------|-----------------|--------------2-4-|-/6---4---x-x-------|
|-----------------|-----------------|------------------|----------7-6-(6)---|


G#5 E5 B5 F#5
E E E E E E E E E E E E E E E E E E E E E E E E E E E E E E E E
|-----------------|-----------------|-------------------|---------------------|
|-----------------|-----------------|-------------------|---------------------|
|-----------------|-----------------|-4-4-4-4-4-4-4-4---|---------------------|
|-6-6-6-6-6-6-6-6-|-2-2-2-2-2-2-2-2-|-4-4-4-4-4-4-4-4---|-----4-4-4-4-4--4-4--|
|-6-6-6-6-6-6-6-6-|-2-2-2-2-2-2-2-2-|-2-2-2-2-2-2-2-2---|-----4-4-4-4-4--4-4--|
|-4-4-4-4-4-4-4-4-|-0-0-0-0-0-0-0-0-|-------------------|-----2-2-2-2-2--2-2--|
|
| W W H E E E S S +E E E E E Q.
|-----------------|-----------------|-------------------|---------------------|
|-----------------|-----------------|-------------------|---------------------|
|-----------------|-----------------|---------4-6-8-6s8-|-(8)-6-4-6-8-6-------|
|-6---------------|-----------------|---------x-x-x-x-x-|-----x-x-x-x-x-------|
|-x---------------|-----------------|---------2-4-6-4s6-|-(6)-4-2-4-6-4-------|
|-4---------------|-----------------|-------------------|---------------------|


G#5 E5
E E E E E E E E E E E E E E E E
|--------------------------|-------------------------|
|--------------------------|-------------------------|
|--------------------------|-------------------------|
|---6--6--6--6--6--6--6--6-|--2--2--2--2--2--2--2--2-|
|---6--6--6--6--6--6--6--6-|--2--2--2--2--2--2--2--2-|
|---4--4--4--4--4--4--4--4-|--0--0--0--0--0--0--0--0-|
|
| W W
|--------------------------|-------------------------|
|--------------------------|-------------------------|
|--------------------------|-------------------------|
|--------------------------|-------------------------|
|--------------------------|-------------------------|
|--------------------------|-------------------------|
|
| Gtr III
| E E E E E E E E E E E E E E E E
|--11-11-------------------|-11-11-------------------|
|-/12-12-12-12-12-12-12-12-|-12-12-12-12-12-12-12-12-|
|--------11-11-------11-11-|-------11-11-------11-11-|
|--------------------------|-------------------------|
|--------------------------|-------------------------|
|--------------------------|-------------------------|


B5 F#5
E E E E E E E E E E E E E E E E
|--------------------------|--------------------------|
|--------------------------|--------------------------|
|--4---4--4--4--4--4--4--4-|--------------------------|
|--4---4--4--4--4--4--4--4-|--4--4--4--4--4--4--4---4-|
|--2---2--2--2--2--2--2--2-|--4--4--4--4--4--4--4---4-|
|--------------------------|--2--2--2--2--2--2--2---2-|
|
| H. E E Q Q E E +Q
|--------------------------|--------------------------|
|--------------------------|--------------------------|
|---------------------4--6-|-/8-----6-----------------|
|---------------------x--x-|--x-----x-----9--8-(8)----|
|---------------------2--4-|-/6-----4-----x--x--------|
|--------------------------|--------------7--6-(6)----|
|
| E E E E E E E E E E E E E E E E
|-11--11-------------------|-11-11--------------------|
|-12--12-12-12-12-12-12-12-|-12-12-12-12-12-12-12--12-|
|--------11-11-------11-11-|-------11-11-------11--11-|
|--------------------------|--------------------------|
|--------------------------|--------------------------|
|--------------------------|--------------------------|


G#5 E5
E E E E E E E E W
|-------------------------|-----------------|
|-------------------------|-----------------|
|-------------------------|-----------------|
|--6--6--6--6--6--6--6--6-|--2--------------|
|--6--6--6--6--6--6--6--6-|--2--------------|
|--4--4--4--4--4--4--4--4-|--0--------------|
|
| E E E E E E E E W
|-------------------------|-----------------|
|-------------------------|-----------------|
|--8--8--8--8--8--8--8--8-|--4--------------|
|--x--x--x--x--x--x--x--x-|--x--------------|
|--6--6--6--6--6--6--6--6-|--2--------------|
|-------------------------|-----------------|
|
| E E E E E E E E E E +H.
|-11-11-------------------|-----------------|
|-12-12-12-12-12-12-12-12-|-12s14-(14)------|
|-------11-11-------11-11-|-11s13-(13)------|
|-------------------------|-----------------|
|-------------------------|-----------------|
|-------------------------|-----------------|


+W +W +W
|-------------|-------------|---------*|
|-------------|-------------|---------*|
|-------------|-------------|---------*|
|--(2)--------|--(2)--------|--(2)----*|
|--(2)--------|--(2)--------|--(2)----*|
|--(0)--------|--(0)--------|--(0)----*|
|
| +W +W +W
|-------------|-------------|---------*|
|-------------|-------------|---------*|
|--(4)--------|--(4)--------|--(4)----*|
|-------------|-------------|---------*|
|--(2)--------|--(2)--------|--(2)----*|
|-------------|-------------|---------*|
|
| +W +W +W
|-------------|-------------|---------*|
|-(14)--------|-(14)--------|-(14)----*|
|-(13)--------|-(13)--------|-(13)----*|
|-------------|-------------|---------*|
|-------------|-------------|---------*|
|-------------|-------------|---------*|





Comments


Popular Punchline tabs & chords
Here Goes Nothing 1 Bass Tabs
Rewind Bass Tabs
For The Second Time Chords
Yearlong Winter Chords
A Sharp Is A Flat Tabs
Dont Try This At Home Intro Tabs
Getting There Is Getting By (Intro) Tabs
Here Goes Nothing Tabs
Wars Will Always Happen Intro Tabs
World Tabs


Song lyrics



↑ Back to top | Tablatures and chords are parodies/interpretations of the original songs. You may use it for private study, scholarship, research or language learning purposes only
© 2014 AZChords.com Contact us | Privacy policy | DMCA | Add/correct tabs | Request tabs | Top 50 tabs