» » »

Don't Try This At Home Bass tabs (ver.1)

Artists:  A B C D E F G H I J K L M N O P Q R S T U V W X Y Z # 

Don't Try This At Home Bass tabs (ver.1)

Punchline
Rating:
5/5 (1 vote)

Tabs too difficult? Try these video lessons and learn fast.
                
Tuning: standard


punchline is pumpkin pie


intro x2
G|----------------------------------------------|
D|----------------------------------------------| 
A|-22222222-------------------------------------|
E|---------------00000000--44444444--00000000---|

REST

0:21
G|-----|
D|-----| 
A|-----|
E|-12/-|

REST

Verse 1
G|---------------------------------------|------------------------------------------|
D|---------------22--2-1-----------------|---------------22--2-1--------------------| 
A|---------22----------------------------|---------22-------------------------------|
E|-22-44-----------------22-44-0000-0000-|-22-44-----------------22-44-00000000x----|

Pre Chorus
G|-----------------------------------------------|---------------------------------------------|
D|-----------------------------------------------|---------------------------------------------|
A|----------------------------22222222--22222222-|------------------------22222222-------------|
E|-44444444--00000000----------------------------|-44444444--00000000---------------22222222---|

Chorus
G|--------------------------------------------------------|
D|--------------------------------------------------------| 
A|-----------------------22222222-------------------------|
E|-44444444--00000000---------------22222222--44444444-3--|

verse 2
G|------------------------------------|----------------------------------------|
D|------------22--2-1-----------------|-------------22--2-1--------------------|
A|--------22--------------------------|---------22-----------------------------|
E|-22-44--------------22-44-00000000x-|-22-44-----------------22-44-0000-0000--|
(continued)
G|------------------------------------------|
D|------------22--2-1-----------------------|
A|--------22--------------------------------|
E|-22-44--------------22-44-00000000-0000x--|

Pre Chorus 
Chorus

Bridge x3
G|-------------------------|
D|-------------------------|
A|-------------------------|
E|-333-555-0000000000------|

Bridge Ending
G|---------------------------|
D|---------------------------|
A|---------------------------|
E|-3~--5~--0~--00-000--------|

REST
Pre Chorus
Chorus
Pre Chorus

End
G|--------------------------------------------------------|
D|--------------------------------------------------------| 
A|------------------------22222222------------------------|
E|-44444444--00000000---------------22222222--44444444-0~-|

| /  slide up
| \  slide down
| h  hammer-on
| p  pull-off
| ~  vibrato
| +  harmonic
| x  Mute note
===============================================================================
            
Tabs too difficult? Try these video lessons and learn fast.


comments powered by Disqus
↑ Back to top | Tablatures and chords are parodies/interpretations of the original songs. You may use it for private study, scholarship, research or language learning purposes only