» » »

Pulp, Disco 2 Bass tabs (ver.1)

Artists:  A B C D E F G H I J K L M N O P Q R S T U V W X Y Z # 

Disco 2 Bass tabs (ver.1)

Pulp Tabs
 Rating:
4/5 (4 votes)
Disco 2 lessons Tabs too difficult? Try these video lessons and learn fast
                
This NOT the single version

--------------------------------!!!Warning!!!--------------------------------
--------------------------------!!!Warning!!!--------------------------------


Verse
G |--------------------------------|--------------------------------|
D |-----3-------3-------3-------3--|-----3-------3-------3-------3--|
A |--------------------------------|--------------------------------|
E |-1-------1-------1-------1------|-1-------1-------1-------1------|x2

G |-----3-------3-------3-------3--|-----3-------3-------3-------3--|
D |--------------------------------|--------------------------------|
A |-1-------1-------1-------1------|-1-------1-------1-------1------|
E |--------------------------------|--------------------------------|x2


Prechorus
G |--------------------------------|--------------------------------|
D |--------------------------------|--------------------------------|
A |-3---3---3---3---3---3---3---3--|-3---3---3---3---3---3---3---3--|
E |--------------------------------|--------------------------------|x3


Prechorus Ending 1
G |--------------------------------|--------------------------------|
D |--------------------------------|---------0-------2-------5------|
A |-3---3---3---3---3---3---3---3--|-3------------------------------|
E |--------------------------------|--------------------------------|

G |--------------------------------|--------------------------------|
D |-3------------------------------|--------------------------------|
A |--------------------------------|--------------------------------|
E |---------1-----------1----------|-1-----------1-----------1------|


Chorus
G |--------------------------------|--------------------------------|
D |--------------------------------|--------------------------------|
A |--------------------------------|--------------------------------|
E |-6---6---6---6---6---6---6---6--|-6---6---5---5---6---6---8---8--|

G |--------------------------------|--------------------------------|
D |--------------------------------|--------------------------------|
A |-5---5---5---5---5---5---5---5--|-5---5---3---3---5---5---8---8--|
E |--------------------------------|--------------------------------|

G |--------------------------------|--------------------------------|
D |-5---5---5---5---5---5---5---5--|-5---5---3---3---5---5---3---3--|
A |--------------------------------|--------------------------------|
E |--------------------------------|--------------------------------|
Chorus End
G |--------------------------------|--------------------------------|
D |--------------------------------|--------------------------------|
A |-3---3---3---3---3---3---3---3--|--------------------------------|
E |--------------------------------|-6---------------5--------------|


Break
G |--------------------------------|--------------------------------|
D |--------------------------------|--------------------------------|
A |--------------------------------|--------------------------------|
E |-1------------------------------|--------------------------------|x2

G |--------------------------------|--------------------------------|
D |--------------------------------|--------------------------------|
A |-1---1---1---1---1---1---1---1--|-1---1---1---1---1---1---1---1--|
E |--------------------------------|--------------------------------|x2


End Of Last Chorus
G |--------------------------------|--------------------------------|
D |--------------------------------|--------------------------------|
A |-3---3---3---3---3---3---3---3--|-3---3---3---3---3---3---3---3--|
E |--------------------------------|--------------------------------|

G |--------------------------------|--------------------------------|
D |--------------------------------|--------------------------------|
A |-3---3---3---3---3---3---3---3--|--------------------------------|
E |--------------------------------|-6------------------------------|


Order:
[00:07] Verse x3
[00:50] Prechorus
[01:08] Chorus x2
[01:37] Verse x2
[02:06] Prechorus
[02:24] Chorus x2
[02:53] Break
[03:08] Prechorus
[03:26] Chorus x4

This may not be 100% accurate, and corrections are welcome.
            
Submit corrections

comments powered by Disqus
↑ Back to top | Pulp Bass for Disco 2. Lyrics for acoustic guitar and electric guitar. Tablatures and chords are parodies/interpretations of the original songs. You may use it for private study, scholarship, research or language learning purposes only